  0
SECTION
  2
ENTITIES
  0
LINE
  8
APS_GEOMETRY
 10
26.812477
 11
26.812477
 20
16.125
 21
0.75
  0
ARC
  8
APS_GEOMETRY
 10
26.062477
 20
0.75
 40
0.75
 50
270.0
 51
0.0
  0
LINE
  8
APS_GEOMETRY
 10
26.062477
 11
0.75
 20
0.0
 21
0.0
  0
ARC
  8
APS_GEOMETRY
 10
0.75
 20
0.75
 40
0.75
 50
180.0
 51
270.0
  0
LINE
  8
APS_GEOMETRY
 10
0.0
 11
0.0
 20
0.75
 21
16.125
  0
ARC
  8
APS_GEOMETRY
 10
0.75
 20
16.125
 40
0.75
 50
90.0
 51
180.0
  0
LINE
  8
APS_GEOMETRY
 10
0.75
 11
26.062477
 20
16.875
 21
16.875
  0
ARC
  8
APS_GEOMETRY
 10
26.062477
 20
16.125
 40
0.75
 50
0.0
 51
90.0
  0
LINE
  8
APS_GEOMETRY
 10
13.406239
 11
13.406239
 20
16.875
 21
0.0
  0
LINE
  8
APS_GEOMETRY
 10
0.0
 11
26.812477
 20
8.4375
 21
8.4375
  0
LINE
  8
APS_GEOMETRY
 10
25.806623
 11
23.306623
 20
3.699571
 21
3.699571
  0
ARC
  8
APS_GEOMETRY
 10
23.462873
 20
3.543321
 40
0.15625
 50
90.0
 51
180.0
  0
LINE
  8
APS_GEOMETRY
 10
23.306623
 11
23.306623
 20
3.543321
 21
1.199571
  0
LINE
  8
APS_GEOMETRY
 10
25.806623
 11
23.619123
 20
5.574571
 21
5.574571
  0
ARC
  8
APS_GEOMETRY
 10
23.619123
 20
5.262071
 40
0.3125
 50
90.0
 51
180.0
  0
LINE
  8
APS_GEOMETRY
 10
23.306623
 11
23.306623
 20
5.262071
 21
3.699571
  0
LINE
  8
APS_GEOMETRY
 10
27.437477
 11
-0.625
 20
-0.625
 21
-0.625
  0
LINE
  8
APS_GEOMETRY
 10
-0.625
 11
-0.625
 20
-0.625
 21
17.5
  0
LINE
  8
APS_GEOMETRY
 10
-0.625
 11
27.437477
 20
17.5
 21
17.5
  0
LINE
  8
APS_GEOMETRY
 10
27.437477
 11
27.437477
 20
17.5
 21
-0.625
  0
LINE
  8
DIMENSIONS
 10
0.0
 11
0.0
 20
7.4375
 21
-3.557268
  0
LINE
  8
DIMENSIONS
 10
26.812477
 11
26.812477
 20
7.4375
 21
-3.557268
  0
LINE
  8
DIMENSIONS
 10
0.0
 11
7.674198
 20
-2.557268
 21
-2.557268
  0
LINE
  8
DIMENSIONS
 10
19.138279
 11
26.812477
 20
-2.557268
 21
-2.557268
  0
LINE
  8
DIMENSIONS
 10
2.0
 11
0.0
 20
-2.890668
 21
-2.557268
  0
LINE
  8
DIMENSIONS
 10
0.0
 11
2.0
 20
-2.557268
 21
-2.223868
  0
LINE
  8
DIMENSIONS
 10
2.0
 11
2.0
 20
-2.223868
 21
-2.890668
  0
LINE
  8
DIMENSIONS
 10
24.812477
 11
26.812477
 20
-2.223868
 21
-2.557268
  0
LINE
  8
DIMENSIONS
 10
26.812477
 11
24.812477
 20
-2.557268
 21
-2.890668
  0
LINE
  8
DIMENSIONS
 10
24.812477
 11
24.812477
 20
-2.890668
 21
-2.223868
  0
LINE
  8
DIMENSIONS
 10
14.406239
 11
34.015036
 20
16.875
 21
16.875
  0
LINE
  8
DIMENSIONS
 10
14.406239
 11
34.015036
 20
0.0
 21
0.0
  0
LINE
  8
DIMENSIONS
 10
33.015036
 11
33.015036
 20
16.875
 21
9.940543
  0
LINE
  8
DIMENSIONS
 10
33.015036
 11
33.015036
 20
6.916213
 21
0.0
  0
LINE
  8
DIMENSIONS
 10
32.681636
 11
33.015036
 20
14.875
 21
16.875
  0
LINE
  8
DIMENSIONS
 10
33.015036
 11
33.348436
 20
16.875
 21
14.875
  0
LINE
  8
DIMENSIONS
 10
33.348436
 11
32.681636
 20
14.875
 21
14.875
  0
LINE
  8
DIMENSIONS
 10
33.348436
 11
33.015036
 20
2.0
 21
0.0
  0
LINE
  8
DIMENSIONS
 10
33.015036
 11
32.681636
 20
0.0
 21
2.0
  0
LINE
  8
DIMENSIONS
 10
32.681636
 11
33.348436
 20
2.0
 21
2.0
  0
TEXT
  8
TEXT
 10
1.025578
 20
11.892122
 30
0.0
 40
2.1875
 50
0.0
  1
AS3339
  0
TEXT
  8
TEXT
 10
14.186871
 20
5.540838
 30
0.0
 40
0.65625
 50
0.0
  1
W/ SINK RIM
  0
TEXT
  8
TEXT
 10
17.170487
 20
6.525213
 30
0.0
 40
0.65625
 50
0.0
  1
CUTOUT IS FLUSH
  0
TEXT
  8
TEXT
 10
16.219412
 20
6.525213
 30
0.0
 40
0.65625
 50
0.0
  1
E: 
  0
TEXT
  8
TEXT
 10
14.186871
 20
6.525213
 30
0.0
 40
0.65625
 50
0.0
  1
*NOT
  0
TEXT
  8
DIMENSIONS
 10
8.174198
 20
-3.557268
 30
0.0
 40
2.0
 50
0.0
  1
26.8125
  0
TEXT
  8
DIMENSIONS
 10
28.594107
 20
7.4375
 30
0.0
 40
2.0
 50
0.0
  1
16.875
  0
ENDSEC
  0
EOF
