  0
SECTION
  2
ENTITIES
  0
LINE
  8
APS_GEOMETRY
 10
29.995798
 11
29.995798
 20
14.951911
 21
-3.860589
  0
ARC
  8
APS_GEOMETRY
 10
28.745798
 20
-3.860589
 40
1.25
 50
270.0
 51
0.0
  0
LINE
  8
APS_GEOMETRY
 10
28.745798
 11
-1.191702
 20
-5.110589
 21
-5.110589
  0
ARC
  8
APS_GEOMETRY
 10
-1.191702
 20
-3.860589
 40
1.25
 50
180.0
 51
270.0
  0
LINE
  8
APS_GEOMETRY
 10
-2.441702
 11
-2.441702
 20
-3.860589
 21
14.951911
  0
ARC
  8
APS_GEOMETRY
 10
-1.191702
 20
14.951911
 40
1.25
 50
90.0
 51
180.0
  0
LINE
  8
APS_GEOMETRY
 10
-1.191702
 11
28.745798
 20
16.201911
 21
16.201911
  0
ARC
  8
APS_GEOMETRY
 10
28.745798
 20
14.951911
 40
1.25
 50
0.0
 51
90.0
  0
LINE
  8
APS_GEOMETRY
 10
13.777048
 11
13.777048
 20
16.201911
 21
-5.110589
  0
LINE
  8
APS_GEOMETRY
 10
-2.441702
 11
29.995798
 20
5.545661
 21
5.545661
  0
LINE
  8
APS_GEOMETRY
 10
-1.222973
 11
28.77707
 20
-5.454349
 21
-5.454349
  0
ARC
  8
APS_GEOMETRY
 10
28.77707
 20
-3.954349
 40
1.5
 50
270.0
 51
0.0
  0
LINE
  8
APS_GEOMETRY
 10
30.27707
 11
30.27707
 20
-3.954349
 21
15.045672
  0
ARC
  8
APS_GEOMETRY
 10
28.77707
 20
15.045672
 40
1.5
 50
0.0
 51
90.0
  0
LINE
  8
APS_GEOMETRY
 10
28.77707
 11
-1.222973
 20
16.545672
 21
16.545672
  0
ARC
  8
APS_GEOMETRY
 10
-1.222973
 20
15.045672
 40
1.5
 50
90.0
 51
180.0
  0
LINE
  8
APS_GEOMETRY
 10
-2.722973
 11
-2.722973
 20
15.045672
 21
-3.954349
  0
ARC
  8
APS_GEOMETRY
 10
-1.222973
 20
-3.954349
 40
1.5
 50
180.0
 51
270.0
  0
LINE
  8
DIMENSIONS
 10
12.777048
 11
-8.757367
 20
16.201911
 21
16.201911
  0
LINE
  8
DIMENSIONS
 10
12.777048
 11
-8.757367
 20
-5.110589
 21
-5.110589
  0
LINE
  8
DIMENSIONS
 10
-7.757367
 11
-7.757367
 20
16.201911
 21
7.051955
  0
LINE
  8
DIMENSIONS
 10
-7.757367
 11
-7.757367
 20
4.045652
 21
-5.110589
  0
LINE
  8
DIMENSIONS
 10
-8.090767
 11
-7.757367
 20
14.201911
 21
16.201911
  0
LINE
  8
DIMENSIONS
 10
-7.757367
 11
-7.423967
 20
16.201911
 21
14.201911
  0
LINE
  8
DIMENSIONS
 10
-7.423967
 11
-8.090767
 20
14.201911
 21
14.201911
  0
LINE
  8
DIMENSIONS
 10
-7.423967
 11
-7.757367
 20
-3.110589
 21
-5.110589
  0
LINE
  8
DIMENSIONS
 10
-7.757367
 11
-8.090767
 20
-5.110589
 21
-3.110589
  0
LINE
  8
DIMENSIONS
 10
-8.090767
 11
-7.423967
 20
-3.110589
 21
-3.110589
  0
LINE
  8
DIMENSIONS
 10
-2.441702
 11
-2.441702
 20
6.545661
 21
19.528387
  0
LINE
  8
DIMENSIONS
 10
29.995798
 11
29.995798
 20
6.545661
 21
19.528387
  0
LINE
  8
DIMENSIONS
 10
-2.441702
 11
8.435605
 20
18.528387
 21
18.528387
  0
LINE
  8
DIMENSIONS
 10
19.118492
 11
29.995798
 20
18.528387
 21
18.528387
  0
LINE
  8
DIMENSIONS
 10
-0.441702
 11
-2.441702
 20
18.194987
 21
18.528387
  0
LINE
  8
DIMENSIONS
 10
-2.441702
 11
-0.441702
 20
18.528387
 21
18.861787
  0
LINE
  8
DIMENSIONS
 10
-0.441702
 11
-0.441702
 20
18.861787
 21
18.194987
  0
LINE
  8
DIMENSIONS
 10
27.995798
 11
29.995798
 20
18.861787
 21
18.528387
  0
LINE
  8
DIMENSIONS
 10
29.995798
 11
27.995798
 20
18.528387
 21
18.194987
  0
LINE
  8
DIMENSIONS
 10
27.995798
 11
27.995798
 20
18.194987
 21
18.861787
  0
TEXT
  8
TEXT
 10
-0.099088
 20
8.748102
 30
0.0
 40
2.5
 50
0.0
  1
AS111
  0
TEXT
  8
TEXT
 10
14.258512
 20
1.605151
 30
0.0
 40
0.75
 50
0.0
  1
*NOTE: SINK CUTOUT IS TOP
  0
TEXT
  8
TEXT
 10
14.258512
 20
0.480151
 30
0.0
 40
0.75
 50
0.0
  1
MOUNT, SELF-RIMMING
  0
TEXT
  8
DIMENSIONS
 10
-11.774984
 20
4.545661
 30
0.0
 40
2.0
 50
0.0
  1
21.313
  0
TEXT
  8
DIMENSIONS
 10
8.882017
 20
17.528387
 30
0.0
 40
2.0
 50
0.0
  1
32.438
  0
ENDSEC
  0
EOF
