  0
SECTION
  2
ENTITIES
  0
ARC
  8
0
 62
1
 10
 7.937805 
 20
-4.396629 
 30
0.0
 40
 6.561927 
 50
 352.26331809526 
 51
 93.9130725092293 
  0
ARC
  8
0
 62
1
 10
 11.16746 
 20
-4.72178 
 30
0.0
 40
 3.319803 
 50
 271.769921227763 
 51
 350.319828748321 
  0
ARC
  8
0
 62
1
 10
 9.318178 
 20
 24.0739 
 30
0.0
 40
 32.17316 
 50
 271.374644520168 
 51
 273.478042255934 
  0
LINE
  8
0
 62
1
 10
 10.09 
 20
-8.09 
 30
0.0
 11
-10.37 
 21
-8.09 
 31
0.0
  0
ARC
  8
0
 62
1
 10
-9.975028 
 20
 13.12443 
 30
0.0
 40
 21.21811 
 50
 264.333675713288 
 51
 268.933398307341 
  0
ARC
  8
0
 62
1
 10
-11.81769 
 20
-5.040378 
 30
0.0
 40
 2.960395 
 50
 235.839192009226 
 51
 265.110759995437 
  0
ARC
  8
0
 62
1
 10
-11.87499 
 20
-4.800679 
 30
0.0
 40
 3.131851 
 50
 199.944799397068 
 51
 239.17090364441 
  0
ARC
  8
0
 62
1
 10
-7.68959 
 20
-3.671374 
 30
0.0
 40
 7.460432 
 50
 185.141921656129 
 51
 197.131813308522 
  0
ARC
  8
0
 62
1
 10
-1.472322 
 20
-3.414039 
 30
0.0
 40
 13.67905 
 50
 179.187226134706 
 51
 183.881423905346 
  0
LINE
  8
0
 62
1
 10
-15.15 
 20
-3.22 
 30
0.0
 11
-15.15 
 21
 2.65 
 31
0.0
  0
ARC
  8
0
 62
1
 10
-1.253393 
 20
 2.881448 
 30
0.0
 40
 13.89853 
 50
 170.221373416185 
 51
 180.954168752001 
  0
ARC
  8
0
 62
1
 10
-11.75675 
 20
 4.698183 
 30
0.0
 40
 3.239224 
 50
 129.795150290315 
 51
 170.335123386607 
  0
ARC
  8
0
 62
1
 10
-11.61802 
 20
 4.354832 
 30
0.0
 40
 3.59361 
 50
 96.2621384890301 
 51
 127.990573330698 
  0
ARC
  8
0
 62
1
 10
-11.04509 
 20
-1.11788 
 30
0.0
 40
 9.096203 
 50
 89.0230395547322 
 51
 96.0892732313488 
  0
LINE
  8
0
 62
1
 10
-10.89 
 20
 7.977 
 30
0.0
 11
 9.758 
 21
 7.977 
 31
0.0
  0
ARC
  8
0
 62
1
 10
 9.937808 
 20
-5.394738 
 30
0.0
 40
 13.37295 
 50
 81.0945423068383 
 51
 90.7704000196793 
  0
ARC
  8
0
 62
1
 10
 11.37303 
 20
 4.627465 
 30
0.0
 40
 3.252126 
 50
 43.0383333509513 
 51
 78.7408113078351 
  0
ARC
  8
0
 62
1
 10
 11.38855 
 20
 4.716063 
 30
0.0
 40
 3.180774 
 50
 7.78647627072672 
 51
 42.0626544885208 
  0
ARC
  8
0
 62
1
 10
-17.98148 
 20
 1.81478 
 30
0.0
 40
 32.69175 
 50
 0.231730762787674 
 51
 5.8502316200627 
  0
LINE
  8
0
 62
1
 10
 14.71 
 20
 1.947 
 30
0.0
 11
 14.71 
 21
-2.353 
 31
0.0
  0
ARC
  8
0
 62
1
 10
 2.581599 
 20
-2.410548 
 30
0.0
 40
 12.12854 
 50
 350.975472267044 
 51
 0.271862926633019 
  0
ARC
  8
0
 62
1
 10
-5.880635 
 20
-2.267345 
 30
0.0
 40
 20.54274 
 50
 351.566993969846 
 51
 354.284999447806 
  0
ARC
  8
0
 62
1
 10
 11.16746 
 20
-4.72178 
 30
0.0
 40
 3.319803 
 50
 271.769921227763 
 51
 350.319828748321 
  0
ARC
  8
0
 62
1
 10
 10.78416 
 20
-0.8442805 
 30
0.0
 40
 7.212102 
 50
 193.108872869045 
 51
 273.862636547669 
  0
ENDSEC
  0
EOF
