  0
SECTION
  2
ENTITIES
  0
LINE
  8
APS_GEOMETRY
 10
20.401445
 11
20.401445
 20
1.119699
 21
2.868053
  0
ARC
  8
APS_GEOMETRY
 10
20.651445
 20
2.868053
 40
0.25
 50
90.0
 51
180.0
  0
LINE
  8
APS_GEOMETRY
 10
20.651445
 11
20.873435
 20
3.118053
 21
3.118053
  0
LINE
  8
APS_GEOMETRY
 10
20.873435
 11
22.954898
 20
3.118053
 21
3.118053
  0
LINE
  8
APS_GEOMETRY
 10
20.651445
 11
20.651403
 20
3.118053
 21
3.118025
  0
LINE
  8
APS_GEOMETRY
 10
20.651403
 11
20.651403
 20
3.118025
 21
3.618053
  0
ARC
  8
APS_GEOMETRY
 10
20.901403
 20
3.618053
 40
0.25
 50
90.0
 51
180.0
  0
LINE
  8
APS_GEOMETRY
 10
20.901403
 11
22.954898
 20
3.868053
 21
3.868053
  0
LINE
  8
APS_GEOMETRY
 10
22.954898
 11
22.954898
 20
3.868053
 21
3.118053
  0
LINE
  8
APS_GEOMETRY
 10
14.6875
 11
14.6875
 20
16.375
 21
0.125
  0
LINE
  8
APS_GEOMETRY
 10
29.375
 11
29.375
 20
1.1625
 21
15.3375
  0
ARC
  8
APS_GEOMETRY
 10
28.3375
 20
15.3375
 40
1.0375
 50
0.0
 51
90.0
  0
LINE
  8
APS_GEOMETRY
 10
28.3375
 11
1.0375
 20
16.375
 21
16.375
  0
ARC
  8
APS_GEOMETRY
 10
1.0375
 20
15.3375
 40
1.0375
 50
90.0
 51
180.0
  0
LINE
  8
APS_GEOMETRY
 10
0.0
 11
0.0
 20
15.3375
 21
1.1625
  0
ARC
  8
APS_GEOMETRY
 10
1.0375
 20
1.1625
 40
1.0375
 50
180.0
 51
270.0
  0
LINE
  8
APS_GEOMETRY
 10
1.0375
 11
28.3375
 20
0.125
 21
0.125
  0
ARC
  8
APS_GEOMETRY
 10
28.3375
 20
1.1625
 40
1.0375
 50
270.0
 51
0.0
  0
LINE
  8
DIMENSIONS
 10
0.0
 11
0.0
 20
7.75
 21
-1.571303
  0
LINE
  8
DIMENSIONS
 10
29.375
 11
29.375
 20
7.75
 21
-1.571303
  0
LINE
  8
DIMENSIONS
 10
0.0
 11
11.576188
 20
-1.071303
 21
-1.071303
  0
LINE
  8
DIMENSIONS
 10
17.798812
 11
29.375
 20
-1.071303
 21
-1.071303
  0
LINE
  8
DIMENSIONS
 10
1.0
 11
0.0
 20
-1.238003
 21
-1.071303
  0
LINE
  8
DIMENSIONS
 10
0.0
 11
1.0
 20
-1.071303
 21
-0.904603
  0
LINE
  8
DIMENSIONS
 10
1.0
 11
1.0
 20
-0.904603
 21
-1.238003
  0
LINE
  8
DIMENSIONS
 10
28.375
 11
29.375
 20
-0.904603
 21
-1.071303
  0
LINE
  8
DIMENSIONS
 10
29.375
 11
28.375
 20
-1.071303
 21
-1.238003
  0
LINE
  8
DIMENSIONS
 10
28.375
 11
28.375
 20
-1.238003
 21
-0.904603
  0
LINE
  8
DIMENSIONS
 10
15.1875
 11
33.065898
 20
0.125
 21
0.125
  0
LINE
  8
DIMENSIONS
 10
15.1875
 11
33.065898
 20
16.375
 21
16.375
  0
LINE
  8
DIMENSIONS
 10
32.565898
 11
32.565898
 20
0.125
 21
7.487803
  0
LINE
  8
DIMENSIONS
 10
32.565898
 11
32.565898
 20
9.003145
 21
16.375
  0
LINE
  8
DIMENSIONS
 10
32.732598
 11
32.565898
 20
1.125
 21
0.125
  0
LINE
  8
DIMENSIONS
 10
32.565898
 11
32.399198
 20
0.125
 21
1.125
  0
LINE
  8
DIMENSIONS
 10
32.399198
 11
32.732598
 20
1.125
 21
1.125
  0
LINE
  8
DIMENSIONS
 10
32.399198
 11
32.565898
 20
15.375
 21
16.375
  0
LINE
  8
DIMENSIONS
 10
32.565898
 11
32.732598
 20
16.375
 21
15.375
  0
LINE
  8
DIMENSIONS
 10
32.732598
 11
32.399198
 20
15.375
 21
15.375
  0
TEXT
  8
TEXT
 10
19.524647
 20
5.095913
 30
0.0
 40
0.5
 50
0.0
  1
OTE: 
  0
TEXT
  8
TEXT
 10
19.616313
 20
4.345913
 30
0.0
 40
0.5
 50
0.0
  1
                  
  0
TEXT
  8
TEXT
 10
21.109545
 20
5.095913
 30
0.0
 40
0.5
 50
0.0
  1
TEMPLATE IS .250
  0
TEXT
  8
TEXT
 10
21.109545
 20
4.345913
 30
0.0
 40
0.5
 50
0.0
  1
-SINK RIM
  0
TEXT
  8
TEXT
 10
19.141313
 20
4.345913
 30
0.0
 40
0.5
 50
0.0
  1
 
  0
TEXT
  8
TEXT
 10
19.141313
 20
5.095913
 30
0.0
 40
0.5
 50
0.0
  1
N
  0
TEXT
  8
DIMENSIONS
 10
11.826189
 20
-1.571303
 30
0.0
 40
1.0
 50
0.0
  1
29.3750
  0
TEXT
  8
DIMENSIONS
 10
29.862231
 20
7.75
 30
0.0
 40
1.0
 50
0.0
  1
16.2500
  0
TEXT
  8
TEXT
 10
19.315344
 20
12.759378
 30
0.0
 40
1.5
 50
0.0
  1
AS132
  0
TEXT
  8
TEXT
 10
19.315344
 20
10.509378
 30
0.0
 40
1.5
 50
0.0
  1

  0
ENDSEC
  0
EOF
