  0
SECTION
  2
ENTITIES
  0
LINE
  8
CONSTRUCTION
 10
15.882875
 11
45.882874
 20
6.136998
 21
6.136998
  0
ARC
  8
CONSTRUCTION
 10
45.882874
 20
7.636998
 40
1.5
 50
270.0
 51
0.0
  0
LINE
  8
CONSTRUCTION
 10
47.382874
 11
47.382874
 20
7.636998
 21
26.637025
  0
ARC
  8
CONSTRUCTION
 10
45.882874
 20
26.637025
 40
1.5
 50
0.0
 51
90.0
  0
LINE
  8
CONSTRUCTION
 10
45.882874
 11
15.882875
 20
28.137025
 21
28.137025
  0
ARC
  8
CONSTRUCTION
 10
15.882875
 20
26.637025
 40
1.5
 50
90.0
 51
180.0
  0
LINE
  8
CONSTRUCTION
 10
14.382875
 11
14.382875
 20
26.637025
 21
7.636998
  0
ARC
  8
CONSTRUCTION
 10
15.882875
 20
7.636998
 40
1.5
 50
180.0
 51
270.0
  0
LINE
  8
APS_GEOMETRY
 10
45.757874
 11
16.007874
 20
6.762013
 21
6.762013
  0
ARC
  8
APS_GEOMETRY
 10
16.007874
 20
7.762013
 40
1.0
 50
180.0
 51
270.0
  0
LINE
  8
APS_GEOMETRY
 10
15.007874
 11
15.007874
 20
7.762013
 21
26.51201
  0
ARC
  8
APS_GEOMETRY
 10
16.007874
 20
26.51201
 40
1.0
 50
90.0
 51
180.0
  0
LINE
  8
APS_GEOMETRY
 10
16.007874
 11
45.757874
 20
27.51201
 21
27.51201
  0
ARC
  8
APS_GEOMETRY
 10
45.757874
 20
26.51201
 40
1.0
 50
0.0
 51
90.0
  0
LINE
  8
APS_GEOMETRY
 10
46.757874
 11
46.757874
 20
26.51201
 21
7.762013
  0
ARC
  8
APS_GEOMETRY
 10
45.757874
 20
7.762013
 40
1.0
 50
270.0
 51
0.0
  0
ARC
  8
CONSTRUCTION
 10
127.111172
 20
12.637025
 40
110.728297
 50
175.383704
 51
180.0
  0
ARC
  8
CONSTRUCTION
 10
20.729098
 20
21.226777
 40
4.0
 50
127.012219
 51
175.383704
  0
ARC
  8
CONSTRUCTION
 10
25.693664
 20
14.641498
 40
12.246988
 50
48.57562
 51
127.012219
  0
ARC
  8
CONSTRUCTION
 10
34.292875
 20
24.387025
 40
0.75
 50
228.57562
 51
270.0
  0
LINE
  8
CONSTRUCTION
 10
34.292875
 11
41.882874
 20
23.637025
 21
23.637025
  0
ARC
  8
CONSTRUCTION
 10
41.882874
 20
20.137025
 40
3.5
 50
0.0
 51
90.0
  0
LINE
  8
CONSTRUCTION
 10
45.382874
 11
45.382874
 20
20.137025
 21
11.136998
  0
ARC
  8
CONSTRUCTION
 10
41.882874
 20
11.136998
 40
3.5
 50
270.0
 51
0.0
  0
LINE
  8
CONSTRUCTION
 10
41.882874
 11
19.882875
 20
7.636998
 21
7.636998
  0
ARC
  8
CONSTRUCTION
 10
19.882875
 20
11.136998
 40
3.5
 50
180.0
 51
270.0
  0
LINE
  8
CONSTRUCTION
 10
16.382875
 11
16.382875
 20
11.136998
 21
12.637025
  0
LINE
  8
APS_GEOMETRY
 10
42.999626
 11
46.562902
 20
16.930655
 21
16.930655
  0
LINE
  8
APS_GEOMETRY
 10
46.562902
 11
45.301451
 20
16.930655
 21
17.760961
  0
LINE
  8
APS_GEOMETRY
 10
45.301451
 11
45.301451
 20
17.760961
 21
16.930655
  0
CIRCLE
  8
CONSTRUCTION
 10
35.882874
 20
26.137025
 40
0.875
  0
LINE
  8
DIMENSIONS
 10
15.007874
 11
15.007874
 20
6.762013
 21
3.617682
  0
LINE
  8
DIMENSIONS
 10
46.757874
 11
46.757874
 20
6.762013
 21
3.617682
  0
LINE
  8
DIMENSIONS
 10
15.007874
 11
26.899491
 20
4.617682
 21
4.617682
  0
LINE
  8
DIMENSIONS
 10
34.866258
 11
46.757874
 20
4.617682
 21
4.617682
  0
LINE
  8
DIMENSIONS
 10
17.007874
 11
15.007874
 20
4.284282
 21
4.617682
  0
LINE
  8
DIMENSIONS
 10
15.007874
 11
17.007874
 20
4.617682
 21
4.951082
  0
LINE
  8
DIMENSIONS
 10
17.007874
 11
17.007874
 20
4.951082
 21
4.284282
  0
LINE
  8
DIMENSIONS
 10
44.757874
 11
46.757874
 20
4.951082
 21
4.617682
  0
LINE
  8
DIMENSIONS
 10
46.757874
 11
44.757874
 20
4.617682
 21
4.284282
  0
LINE
  8
DIMENSIONS
 10
44.757874
 11
44.757874
 20
4.284282
 21
4.951082
  0
LINE
  8
DIMENSIONS
 10
14.382875
 11
14.382875
 20
6.636998
 21
0.652778
  0
LINE
  8
DIMENSIONS
 10
47.382874
 11
47.382874
 20
6.636998
 21
0.652778
  0
LINE
  8
DIMENSIONS
 10
14.382875
 11
28.744968
 20
1.652778
 21
1.652778
  0
LINE
  8
DIMENSIONS
 10
33.020781
 11
47.382874
 20
1.652778
 21
1.652778
  0
LINE
  8
DIMENSIONS
 10
16.382875
 11
14.382875
 20
1.319378
 21
1.652778
  0
LINE
  8
DIMENSIONS
 10
14.382875
 11
16.382875
 20
1.652778
 21
1.986178
  0
LINE
  8
DIMENSIONS
 10
16.382875
 11
16.382875
 20
1.986178
 21
1.319378
  0
LINE
  8
DIMENSIONS
 10
45.382874
 11
47.382874
 20
1.986178
 21
1.652778
  0
LINE
  8
DIMENSIONS
 10
47.382874
 11
45.382874
 20
1.652778
 21
1.319378
  0
LINE
  8
DIMENSIONS
 10
45.382874
 11
45.382874
 20
1.319378
 21
1.986178
  0
LINE
  8
DIMENSIONS
 10
15.007874
 11
8.414854
 20
27.51201
 21
27.51201
  0
LINE
  8
DIMENSIONS
 10
15.007874
 11
8.414854
 20
6.762013
 21
6.762013
  0
LINE
  8
DIMENSIONS
 10
9.414854
 11
9.414854
 20
27.51201
 21
18.643301
  0
LINE
  8
DIMENSIONS
 10
9.414854
 11
9.414854
 20
15.612617
 21
6.762013
  0
LINE
  8
DIMENSIONS
 10
9.081454
 11
9.414854
 20
25.51201
 21
27.51201
  0
LINE
  8
DIMENSIONS
 10
9.414854
 11
9.748254
 20
27.51201
 21
25.51201
  0
LINE
  8
DIMENSIONS
 10
9.748254
 11
9.081454
 20
25.51201
 21
25.51201
  0
LINE
  8
DIMENSIONS
 10
9.748254
 11
9.414854
 20
8.762013
 21
6.762013
  0
LINE
  8
DIMENSIONS
 10
9.414854
 11
9.081454
 20
6.762013
 21
8.762013
  0
LINE
  8
DIMENSIONS
 10
9.081454
 11
9.748254
 20
8.762013
 21
8.762013
  0
LINE
  8
DIMENSIONS
 10
14.882875
 11
1.536277
 20
28.137025
 21
28.137025
  0
LINE
  8
DIMENSIONS
 10
14.882875
 11
1.536277
 20
6.136998
 21
6.136998
  0
LINE
  8
DIMENSIONS
 10
2.536277
 11
2.536277
 20
28.137025
 21
18.643301
  0
LINE
  8
DIMENSIONS
 10
2.536277
 11
2.536277
 20
15.637002
 21
6.136998
  0
LINE
  8
DIMENSIONS
 10
2.202877
 11
2.536277
 20
26.137025
 21
28.137025
  0
LINE
  8
DIMENSIONS
 10
2.536277
 11
2.869677
 20
28.137025
 21
26.137025
  0
LINE
  8
DIMENSIONS
 10
2.869677
 11
2.202877
 20
26.137025
 21
26.137025
  0
LINE
  8
DIMENSIONS
 10
2.869677
 11
2.536277
 20
8.136998
 21
6.136998
  0
LINE
  8
DIMENSIONS
 10
2.536277
 11
2.202877
 20
6.136998
 21
8.136998
  0
LINE
  8
DIMENSIONS
 10
2.202877
 11
2.869677
 20
8.136998
 21
8.136998
  0
TEXT
  8
DIMENSIONS
 10
1.002944
 20
16.137011
 30
0.0
 40
2.0
 50
0.0
  1
22
  0
TEXT
  8
DIMENSIONS
 10
5.517328
 20
16.137011
 30
0.0
 40
2.0
 50
0.0
  1
20.75
  0
TEXT
  8
DIMENSIONS
 10
29.191379
 20
0.652778
 30
0.0
 40
2.0
 50
0.0
  1
33
  0
TEXT
  8
DIMENSIONS
 10
27.345902
 20
3.617682
 30
0.0
 40
2.0
 50
0.0
  1
31.75
  0
TEXT
  8
TEXT
 10
34.23228
 20
16.468679
 30
0.0
 40
1.25
 50
0.0
  1
Cutout Line
  0
TEXT
  8
TEXT
 10
31.72359
 20
32.752403
 30
0.0
 40
1.5
 50
0.0
  1
AS 142
  0
TEXT
  8
TEXT
 10
31.72359
 20
30.502403
 30
0.0
 40
1.5
 50
0.0
  1
Topmount Stainless Steel
  0
ENDSEC
  0
EOF
