  0
SECTION
  2
ENTITIES
  0
LINE
  8
APS_GEOMETRY
 10
-402.528532
 11
-388.7785
 20
-244.983776
 21
-244.983776
  0
ARC
  8
APS_GEOMETRY
 10
-388.7785
 20
-244.483776
 40
0.5
 50
270.0
 51
0.0
  0
LINE
  8
APS_GEOMETRY
 10
-388.2785
 11
-388.2785
 20
-244.483776
 21
-235.9838
  0
ARC
  8
APS_GEOMETRY
 10
-388.7785
 20
-235.9838
 40
0.5
 50
0.0
 51
90.0
  0
LINE
  8
APS_GEOMETRY
 10
-388.7785
 11
-402.528532
 20
-235.4838
 21
-235.4838
  0
ARC
  8
APS_GEOMETRY
 10
-402.528532
 20
-235.9838
 40
0.5
 50
90.0
 51
180.0
  0
LINE
  8
APS_GEOMETRY
 10
-403.028532
 11
-403.028532
 20
-235.9838
 21
-244.483776
  0
ARC
  8
APS_GEOMETRY
 10
-402.528532
 20
-244.483776
 40
0.5
 50
180.0
 51
270.0
  0
LINE
  8
APS_GEOMETRY
 10
-402.528532
 11
-388.7785
 20
-245.983776
 21
-245.983776
  0
ARC
  8
APS_GEOMETRY
 10
-388.7785
 20
-244.483776
 40
1.5
 50
270.0
 51
0.0
  0
LINE
  8
APS_GEOMETRY
 10
-387.2785
 11
-387.2785
 20
-244.483776
 21
-235.9838
  0
ARC
  8
APS_GEOMETRY
 10
-388.7785
 20
-235.9838
 40
1.5
 50
0.0
 51
90.0
  0
LINE
  8
APS_GEOMETRY
 10
-388.7785
 11
-402.528532
 20
-234.4838
 21
-234.4838
  0
ARC
  8
APS_GEOMETRY
 10
-402.528532
 20
-235.9838
 40
1.5
 50
90.0
 51
180.0
  0
LINE
  8
APS_GEOMETRY
 10
-404.028532
 11
-404.028532
 20
-235.9838
 21
-244.483776
  0
ARC
  8
APS_GEOMETRY
 10
-402.528532
 20
-244.483776
 40
1.5
 50
180.0
 51
270.0
  0
CIRCLE
  8
APS_GEOMETRY
 10
-386.5285
 20
-240.2338
 40
0.25
  0
CIRCLE
  8
APS_GEOMETRY
 10
-386.5285
 20
-235.983812
 40
0.25
  0
CIRCLE
  8
APS_GEOMETRY
 10
-386.5285
 20
-244.483788
 40
0.25
  0
CIRCLE
  8
APS_GEOMETRY
 10
-404.7785
 20
-244.483788
 40
0.25
  0
CIRCLE
  8
APS_GEOMETRY
 10
-404.7785
 20
-235.983812
 40
0.25
  0
CIRCLE
  8
APS_GEOMETRY
 10
-404.7785
 20
-240.2338
 40
0.25
  0
CIRCLE
  8
APS_GEOMETRY
 10
-402.5285
 20
-233.7338
 40
0.25
  0
CIRCLE
  8
APS_GEOMETRY
 10
-388.778468
 20
-233.7338
 40
0.25
  0
CIRCLE
  8
APS_GEOMETRY
 10
-395.653516
 20
-246.483776
 40
0.25
  0
LINE
  8
DIMENSIONS
 10
-404.7785
 11
-404.7785
 20
-234.483812
 21
-229.94432
  0
LINE
  8
DIMENSIONS
 10
-386.5285
 11
-386.5285
 20
-234.483812
 21
-229.94432
  0
LINE
  8
DIMENSIONS
 10
-404.7785
 11
-401.592567
 20
-231.44432
 21
-231.44432
  0
LINE
  8
DIMENSIONS
 10
-389.714433
 11
-386.5285
 20
-231.44432
 21
-231.44432
  0
LINE
  8
DIMENSIONS
 10
-401.7785
 11
-404.7785
 20
-231.94442
 21
-231.44432
  0
LINE
  8
DIMENSIONS
 10
-404.7785
 11
-401.7785
 20
-231.44432
 21
-230.94422
  0
LINE
  8
DIMENSIONS
 10
-401.7785
 11
-401.7785
 20
-230.94422
 21
-231.94442
  0
LINE
  8
DIMENSIONS
 10
-389.5285
 11
-386.5285
 20
-230.94422
 21
-231.44432
  0
LINE
  8
DIMENSIONS
 10
-386.5285
 11
-389.5285
 20
-231.44432
 21
-231.94442
  0
LINE
  8
DIMENSIONS
 10
-389.5285
 11
-389.5285
 20
-231.94442
 21
-230.94422
  0
LINE
  8
DIMENSIONS
 10
-404.7785
 11
-404.7785
 20
-236.483912
 21
-235.483712
  0
LINE
  8
DIMENSIONS
 10
-405.2786
 11
-404.2784
 20
-235.983812
 21
-235.983812
  0
LINE
  8
DIMENSIONS
 10
-386.5285
 11
-386.5285
 20
-236.483912
 21
-235.483712
  0
LINE
  8
DIMENSIONS
 10
-387.0286
 11
-386.0284
 20
-235.983812
 21
-235.983812
  0
LINE
  8
DIMENSIONS
 10
-403.028532
 11
-399.778074
 20
-240.100087
 21
-240.100087
  0
LINE
  8
DIMENSIONS
 10
-391.528958
 11
-388.2785
 20
-240.100087
 21
-240.100087
  0
LINE
  8
DIMENSIONS
 10
-401.028532
 11
-403.028532
 20
-240.433487
 21
-240.100087
  0
LINE
  8
DIMENSIONS
 10
-403.028532
 11
-401.028532
 20
-240.100087
 21
-239.766687
  0
LINE
  8
DIMENSIONS
 10
-401.028532
 11
-401.028532
 20
-239.766687
 21
-240.433487
  0
LINE
  8
DIMENSIONS
 10
-390.2785
 11
-388.2785
 20
-239.766687
 21
-240.100087
  0
LINE
  8
DIMENSIONS
 10
-388.2785
 11
-390.2785
 20
-240.100087
 21
-240.433487
  0
LINE
  8
DIMENSIONS
 10
-390.2785
 11
-390.2785
 20
-240.433487
 21
-239.766687
  0
LINE
  8
DIMENSIONS
 10
-394.653516
 11
-383.042652
 20
-244.983776
 21
-244.983776
  0
LINE
  8
DIMENSIONS
 10
-394.653516
 11
-383.042652
 20
-235.4838
 21
-235.4838
  0
LINE
  8
DIMENSIONS
 10
-384.042652
 11
-384.042652
 20
-244.983776
 21
-241.758592
  0
LINE
  8
DIMENSIONS
 10
-384.042652
 11
-384.042652
 20
-238.733032
 21
-235.4838
  0
LINE
  8
DIMENSIONS
 10
-383.709252
 11
-384.042652
 20
-242.983776
 21
-244.983776
  0
LINE
  8
DIMENSIONS
 10
-384.042652
 11
-384.376052
 20
-244.983776
 21
-242.983776
  0
LINE
  8
DIMENSIONS
 10
-384.376052
 11
-383.709252
 20
-242.983776
 21
-242.983776
  0
LINE
  8
DIMENSIONS
 10
-384.376052
 11
-384.042652
 20
-237.4838
 21
-235.4838
  0
LINE
  8
DIMENSIONS
 10
-384.042652
 11
-383.709252
 20
-235.4838
 21
-237.4838
  0
LINE
  8
DIMENSIONS
 10
-383.709252
 11
-384.376052
 20
-237.4838
 21
-237.4838
  0
TEXT
  8
DIMENSIONS
 10
-400.842567
 20
-232.94432
 30
0.0
 40
3.0
 50
0.0
  1
18.25
  0
TEXT
  8
DIMENSIONS
 10
-399.278074
 20
-241.100087
 30
0.0
 40
2.0
 50
0.0
  1
14.75
  0
TEXT
  8
DIMENSIONS
 10
-386.07768
 20
-241.233788
 30
0.0
 40
2.0
 50
0.0
  1
9.5
  0
TEXT
  8
TEXT
 10
-408.350804
 20
-224.981448
 30
0.0
 40
3.0
 50
0.0
  1
AS 233 8-24-16
  0
TEXT
  8
TEXT
 10
-408.350804
 20
-229.481448
 30
0.0
 40
3.0
 50
0.0
  1
.25 OVERHANG 
  0
ENDSEC
  0
EOF
