  0
SECTION
  2
ENTITIES
  0
LINE
  8
APS_GEOMETRY
 10
60.552103
 11
76.3021
 20
93.081375
 21
93.081375
  0
ARC
  8
APS_GEOMETRY
 10
76.3021
 20
93.581375
 40
0.5
 50
270.0
 51
0.0
  0
LINE
  8
APS_GEOMETRY
 10
76.8021
 11
76.8021
 20
93.581375
 21
103.8314
  0
ARC
  8
APS_GEOMETRY
 10
76.3021
 20
103.8314
 40
0.5
 50
0.0
 51
90.0
  0
LINE
  8
APS_GEOMETRY
 10
76.3021
 11
60.552103
 20
104.3314
 21
104.3314
  0
ARC
  8
APS_GEOMETRY
 10
60.552103
 20
103.8314
 40
0.5
 50
90.0
 51
180.0
  0
LINE
  8
APS_GEOMETRY
 10
60.052103
 11
60.052103
 20
103.8314
 21
93.581375
  0
ARC
  8
APS_GEOMETRY
 10
60.552103
 20
93.581375
 40
0.5
 50
180.0
 51
270.0
  0
LINE
  8
APS_GEOMETRY
 10
60.552103
 11
76.3021
 20
92.081375
 21
92.081375
  0
ARC
  8
APS_GEOMETRY
 10
76.3021
 20
93.581375
 40
1.5
 50
270.0
 51
0.0
  0
LINE
  8
APS_GEOMETRY
 10
77.8021
 11
77.8021
 20
93.581375
 21
103.8314
  0
ARC
  8
APS_GEOMETRY
 10
76.3021
 20
103.8314
 40
1.5
 50
0.0
 51
90.0
  0
LINE
  8
APS_GEOMETRY
 10
76.3021
 11
60.552103
 20
105.3314
 21
105.3314
  0
ARC
  8
APS_GEOMETRY
 10
60.552103
 20
103.8314
 40
1.5
 50
90.0
 51
180.0
  0
LINE
  8
APS_GEOMETRY
 10
59.052103
 11
59.052103
 20
103.8314
 21
93.581375
  0
ARC
  8
APS_GEOMETRY
 10
60.552103
 20
93.581375
 40
1.5
 50
180.0
 51
270.0
  0
CIRCLE
  8
APS_GEOMETRY
 10
58.3021
 20
98.7064
 40
0.25
  0
CIRCLE
  8
APS_GEOMETRY
 10
58.3021
 20
103.831413
 40
0.25
  0
CIRCLE
  8
APS_GEOMETRY
 10
58.3021
 20
93.581387
 40
0.25
  0
CIRCLE
  8
APS_GEOMETRY
 10
78.5521
 20
93.581387
 40
0.25
  0
CIRCLE
  8
APS_GEOMETRY
 10
78.5521
 20
103.831413
 40
0.25
  0
CIRCLE
  8
APS_GEOMETRY
 10
78.5521
 20
98.7064
 40
0.25
  0
LINE
  8
DIMENSIONS
 10
60.052103
 11
62.431271
 20
97.761957
 21
97.761957
  0
LINE
  8
DIMENSIONS
 10
74.422932
 11
76.8021
 20
97.761957
 21
97.761957
  0
LINE
  8
DIMENSIONS
 10
63.052103
 11
60.052103
 20
97.261857
 21
97.761957
  0
LINE
  8
DIMENSIONS
 10
60.052103
 11
63.052103
 20
97.761957
 21
98.262057
  0
LINE
  8
DIMENSIONS
 10
63.052103
 11
63.052103
 20
98.262057
 21
97.261857
  0
LINE
  8
DIMENSIONS
 10
73.8021
 11
76.8021
 20
98.262057
 21
97.761957
  0
LINE
  8
DIMENSIONS
 10
76.8021
 11
73.8021
 20
97.761957
 21
97.261857
  0
LINE
  8
DIMENSIONS
 10
73.8021
 11
73.8021
 20
97.261857
 21
98.262057
  0
LINE
  8
DIMENSIONS
 10
66.927101
 11
52.371053
 20
104.3314
 21
104.3314
  0
LINE
  8
DIMENSIONS
 10
66.927101
 11
52.371053
 20
93.081375
 21
93.081375
  0
LINE
  8
DIMENSIONS
 10
53.871053
 11
53.871053
 20
104.3314
 21
100.965821
  0
LINE
  8
DIMENSIONS
 10
53.871053
 11
53.871053
 20
96.432048
 21
93.081375
  0
LINE
  8
DIMENSIONS
 10
53.370953
 11
53.871053
 20
101.3314
 21
104.3314
  0
LINE
  8
DIMENSIONS
 10
53.871053
 11
54.371153
 20
104.3314
 21
101.3314
  0
LINE
  8
DIMENSIONS
 10
54.371153
 11
53.370953
 20
101.3314
 21
101.3314
  0
LINE
  8
DIMENSIONS
 10
54.371153
 11
53.871053
 20
96.081375
 21
93.081375
  0
LINE
  8
DIMENSIONS
 10
53.871053
 11
53.370953
 20
93.081375
 21
96.081375
  0
LINE
  8
DIMENSIONS
 10
53.370953
 11
54.371153
 20
96.081375
 21
96.081375
  0
LINE
  8
DIMENSIONS
 10
58.3021
 11
58.3021
 20
92.081387
 21
88.467009
  0
LINE
  8
DIMENSIONS
 10
78.5521
 11
78.5521
 20
92.081387
 21
88.467009
  0
LINE
  8
DIMENSIONS
 10
58.3021
 11
61.914143
 20
89.967009
 21
89.967009
  0
LINE
  8
DIMENSIONS
 10
74.940057
 11
78.5521
 20
89.967009
 21
89.967009
  0
LINE
  8
DIMENSIONS
 10
61.3021
 11
58.3021
 20
89.466909
 21
89.967009
  0
LINE
  8
DIMENSIONS
 10
58.3021
 11
61.3021
 20
89.967009
 21
90.467109
  0
LINE
  8
DIMENSIONS
 10
61.3021
 11
61.3021
 20
90.467109
 21
89.466909
  0
LINE
  8
DIMENSIONS
 10
75.5521
 11
78.5521
 20
90.467109
 21
89.967009
  0
LINE
  8
DIMENSIONS
 10
78.5521
 11
75.5521
 20
89.967009
 21
89.466909
  0
LINE
  8
DIMENSIONS
 10
75.5521
 11
75.5521
 20
89.466909
 21
90.467109
  0
LINE
  8
DIMENSIONS
 10
58.3021
 11
58.3021
 20
93.081287
 21
94.081487
  0
LINE
  8
DIMENSIONS
 10
57.802
 11
58.8022
 20
93.581387
 21
93.581387
  0
LINE
  8
DIMENSIONS
 10
78.5521
 11
78.5521
 20
93.081287
 21
94.081487
  0
LINE
  8
DIMENSIONS
 10
78.052
 11
79.0522
 20
93.581387
 21
93.581387
  0
TEXT
  8
DIMENSIONS
 10
63.181271
 20
96.261957
 30
0.0
 40
3.0
 50
0.0
  1
16.75
  0
TEXT
  8
TEXT
 10
53.558885
 20
110.142175
 30
0.0
 40
3.0
 50
0.0
  1
AS 239
  0
TEXT
  8
DIMENSIONS
 10
49.252862
 20
97.206387
 30
0.0
 40
3.0
 50
0.0
  1
11.25
  0
TEXT
  8
TEXT
 10
54.217835
 20
106.480383
 30
0.0
 40
3.0
 50
0.0
  1
.25 OVERHANG 
  0
TEXT
  8
TEXT
 10
70.368658
 20
110.365033
 30
0.0
 40
3.0
 50
0.0
  1
8-24-16
  0
TEXT
  8
DIMENSIONS
 10
62.664144
 20
88.467009
 30
0.0
 40
3.0
 50
0.0
  1
20.25
  0
ENDSEC
  0
EOF
