0
SECTION
2
ENTITIES
0
LINE
8
2
62
5
10
21.5856299212598
20
9.61318897637795
30
0
11
31.0610236220472
21
9.61318897637795
31
0
0
ARC
8
15
62
7
10
32.0223325805341
20
7.42566165469585
30
0
40
2.12990275569975
50
20.5476527018322
51
96.6258032578424
0
ARC
8
15
62
7
10
35.4137237956127
20
8.73770534007625
30
0
40
1.50398747675373
50
202.044109176737
51
252.151741295441
0
LINE
8
2
62
5
10
37.007874015748
20
7.37992125984252
30
0
11
46.6604330708661
21
7.37992125984252
31
0
0
ARC
8
15
62
7
10
42.2217415537778
20
-238.521787922141
30
0
40
245.958490377313
50
89.0452982120193
51
91.2311680641446
0
ARC
8
15
62
7
10
46.5391934149437
20
5.49959676197295
30
0
40
1.88444841313398
50
10.8807284368183
51
79.643882480558
0
ARC
8
15
62
7
10
-237.126131392431
20
1.02522389192885
30
0
40
285.590085195737
50
358.419576523551
51
0.881978286856286
0
ARC
8
15
62
7
10
46.4004160448061
20
-7.41842622783698
30
0
40
1.92703856897186
50
286.015674194685
51
1.52546751208595
0
LINE
8
2
62
5
10
46
20
-9.36417322834646
30
0
11
20.3877952755906
21
-9.35728346456693
31
0
0
ARC
8
15
62
7
10
36.4831405808923
20
2115.22322416545
30
0
40
2124.64147411791
50
269.565948331557
51
270.258343314932
0
ARC
8
15
62
7
10
20.2039136403882
20
-7.29413166979621
30
0
40
2.01450839863315
50
195.302395398675
51
255.681702043214
0
LINE
8
2
62
5
10
18.0915354330709
20
-6.66043307086614
30
0
11
18.0915354330709
21
6.58267716535433
31
0
0
ARC
8
15
62
7
10
246.516305681826
20
-1.18754880301201
30
0
40
228.441081173106
50
177.902053723848
51
181.351560597036
0
ARC
8
15
62
7
10
20.7477116154633
20
7.12187680733353
30
0
40
2.5312507952091
50
111.598810411484
51
161.002521193928
0
ENDSEC
0
EOF
