  0
SECTION
  2
ENTITIES
  0
LINE
  8
APS_GEOMETRY
 10
28.641503
 11
28.641503
 20
2.99431
 21
4.742665
  0
ARC
  8
APS_GEOMETRY
 10
28.891503
 20
4.742665
 40
0.25
 50
90.0
 51
180.0
  0
LINE
  8
APS_GEOMETRY
 10
28.891503
 11
29.113493
 20
4.992665
 21
4.992665
  0
LINE
  8
APS_GEOMETRY
 10
29.113493
 11
31.194956
 20
4.992665
 21
4.992665
  0
LINE
  8
APS_GEOMETRY
 10
28.891503
 11
28.891461
 20
4.992665
 21
4.992637
  0
LINE
  8
APS_GEOMETRY
 10
28.891461
 11
28.891461
 20
4.992637
 21
5.492665
  0
ARC
  8
APS_GEOMETRY
 10
29.141461
 20
5.492665
 40
0.25
 50
90.0
 51
180.0
  0
LINE
  8
APS_GEOMETRY
 10
29.141461
 11
31.194956
 20
5.742665
 21
5.742665
  0
LINE
  8
APS_GEOMETRY
 10
31.194956
 11
31.194956
 20
5.742665
 21
4.992665
  0
LINE
  8
APS_GEOMETRY
 10
23.818355
 11
23.818355
 20
0.002384
 21
19.084301
  0
LINE
  8
APS_GEOMETRY
 10
39.193211
 11
8.519126
 20
9.520445
 21
9.520445
  0
ARC
  8
APS_GEOMETRY
 10
17.168753
 20
10.878203
 40
8.514674
 50
121.623208
 51
153.001957
  0
ARC
  8
APS_GEOMETRY
 10
19.726495
 20
10.278134
 40
11.083803
 50
156.241943
 51
174.21622
  0
ARC
  8
APS_GEOMETRY
 10
43.239442
 20
7.132822
 40
34.802314
 50
172.965261
 51
184.84187
  0
LINE
  8
APS_GEOMETRY
 10
35.399904
 11
18.304724
 20
0.002384
 21
0.002384
  0
ARC
  8
APS_GEOMETRY
 10
18.304724
 20
64.502384
 40
64.5
 50
264.75522
 51
270.0
  0
ARC
  8
APS_GEOMETRY
 10
12.796908
 20
4.501273
 40
4.246624
 50
184.131829
 51
264.75522
  0
ARC
  8
APS_GEOMETRY
 10
35.282392
 20
3.913508
 40
3.91289
 50
271.720974
 51
1.863793
  0
LINE
  8
APS_GEOMETRY
 10
39.193211
 11
39.193211
 20
4.04077
 21
10.988604
  0
ARC
  8
APS_GEOMETRY
 10
35.159729
 20
11.12139
 40
4.035667
 50
358.114453
 51
88.644174
  0
LINE
  8
APS_GEOMETRY
 10
35.255219
 11
29.600933
 20
15.155927
 21
15.155927
  0
ARC
  8
APS_GEOMETRY
 10
29.600933
 20
15.905927
 40
0.75
 50
211.88896
 51
270.0
  0
ARC
  8
APS_GEOMETRY
 10
22.084106
 20
11.229124
 40
8.102976
 50
31.88896
 51
60.229505
  0
ARC
  8
APS_GEOMETRY
 10
22.824574
 20
12.375251
 40
6.740853
 50
60.855599
 51
72.62293
  0
ARC
  8
APS_GEOMETRY
 10
20.795545
 20
5.891519
 40
13.534654
 50
72.62293
 51
85.220924
  0
ARC
  8
APS_GEOMETRY
 10
16.926311
 20
11.271929
 40
8.052291
 50
96.267276
 51
121.623208
  0
ARC
  8
APS_GEOMETRY
 10
19.649768
 20
-13.526679
 40
33.0
 50
89.840125
 51
96.267276
  0
ARC
  8
APS_GEOMETRY
 10
19.666261
 20
-7.615922
 40
27.08922
 50
85.220924
 51
89.840125
  0
LINE
  8
DIMENSIONS
 10
39.193211
 11
39.193211
 20
10.020445
 21
12.44347
  0
LINE
  8
DIMENSIONS
 10
23.818355
 11
23.818355
 20
10.020445
 21
12.44347
  0
LINE
  8
DIMENSIONS
 10
39.193211
 11
34.480389
 20
11.94347
 21
11.94347
  0
LINE
  8
DIMENSIONS
 10
28.531177
 11
23.818355
 20
11.94347
 21
11.94347
  0
LINE
  8
DIMENSIONS
 10
38.193211
 11
39.193211
 20
12.11017
 21
11.94347
  0
LINE
  8
DIMENSIONS
 10
39.193211
 11
38.193211
 20
11.94347
 21
11.77677
  0
LINE
  8
DIMENSIONS
 10
38.193211
 11
38.193211
 20
11.77677
 21
12.11017
  0
LINE
  8
DIMENSIONS
 10
24.818355
 11
23.818355
 20
11.77677
 21
11.94347
  0
LINE
  8
DIMENSIONS
 10
23.818355
 11
24.818355
 20
11.94347
 21
12.11017
  0
LINE
  8
DIMENSIONS
 10
24.818355
 11
24.818355
 20
12.11017
 21
11.77677
  0
LINE
  8
DIMENSIONS
 10
8.519126
 11
8.519126
 20
9.020445
 21
-3.001392
  0
LINE
  8
DIMENSIONS
 10
39.193211
 11
39.193211
 20
9.020445
 21
-3.001392
  0
LINE
  8
DIMENSIONS
 10
8.519126
 11
20.86637
 20
-2.501392
 21
-2.501392
  0
LINE
  8
DIMENSIONS
 10
26.845967
 11
39.193211
 20
-2.501392
 21
-2.501392
  0
LINE
  8
DIMENSIONS
 10
9.519126
 11
8.519126
 20
-2.668092
 21
-2.501392
  0
LINE
  8
DIMENSIONS
 10
8.519126
 11
9.519126
 20
-2.501392
 21
-2.334692
  0
LINE
  8
DIMENSIONS
 10
9.519126
 11
9.519126
 20
-2.334692
 21
-2.668092
  0
LINE
  8
DIMENSIONS
 10
38.193211
 11
39.193211
 20
-2.334692
 21
-2.501392
  0
LINE
  8
DIMENSIONS
 10
39.193211
 11
38.193211
 20
-2.501392
 21
-2.668092
  0
LINE
  8
DIMENSIONS
 10
38.193211
 11
38.193211
 20
-2.668092
 21
-2.334692
  0
LINE
  8
DIMENSIONS
 10
24.318355
 11
44.044255
 20
19.084301
 21
19.084301
  0
LINE
  8
DIMENSIONS
 10
24.318355
 11
44.044255
 20
0.002384
 21
0.002384
  0
LINE
  8
DIMENSIONS
 10
43.544255
 11
43.544255
 20
19.084301
 21
7.879079
  0
LINE
  8
DIMENSIONS
 10
43.544255
 11
43.544255
 20
6.366114
 21
0.002384
  0
LINE
  8
DIMENSIONS
 10
43.377555
 11
43.544255
 20
18.084301
 21
19.084301
  0
LINE
  8
DIMENSIONS
 10
43.544255
 11
43.710955
 20
19.084301
 21
18.084301
  0
LINE
  8
DIMENSIONS
 10
43.710955
 11
43.377555
 20
18.084301
 21
18.084301
  0
LINE
  8
DIMENSIONS
 10
43.710955
 11
43.544255
 20
1.002384
 21
0.002384
  0
LINE
  8
DIMENSIONS
 10
43.544255
 11
43.377555
 20
0.002384
 21
1.002384
  0
LINE
  8
DIMENSIONS
 10
43.377555
 11
43.710955
 20
1.002384
 21
1.002384
  0
TEXT
  8
TEXT
 10
27.764704
 20
6.970525
 30
0.0
 40
0.5
 50
0.0
  1
OTE: 
  0
TEXT
  8
TEXT
 10
27.856371
 20
6.220525
 30
0.0
 40
0.5
 50
0.0
  1
                  
  0
TEXT
  8
TEXT
 10
29.349603
 20
6.970525
 30
0.0
 40
0.5
 50
0.0
  1
TEMPLATE IS .250
  0
TEXT
  8
TEXT
 10
29.349603
 20
6.220525
 30
0.0
 40
0.5
 50
0.0
  1
-SINK RIM
  0
TEXT
  8
TEXT
 10
27.381371
 20
6.220525
 30
0.0
 40
0.5
 50
0.0
  1
 
  0
TEXT
  8
TEXT
 10
27.381371
 20
6.970525
 30
0.0
 40
0.5
 50
0.0
  1
N
  0
TEXT
  8
DIMENSIONS
 10
28.781177
 20
11.44347
 30
0.0
 40
1.0
 50
0.0
  1
15.3749
  0
TEXT
  8
DIMENSIONS
 10
21.089576
 20
-3.001392
 30
0.0
 40
1.0
 50
0.0
  1
30.6741
  0
TEXT
  8
DIMENSIONS
 10
41.040322
 20
6.628516
 30
0.0
 40
1.0
 50
0.0
  1
19.0819
  0
TEXT
  8
TEXT
 10
12.728548
 20
12.521265
 30
0.0
 40
2.0
 50
0.0
  1
AS319
  0
TEXT
  8
TEXT
 10
12.728548
 20
9.521265
 30
0.0
 40
2.0
 50
0.0
  1

  0
ENDSEC
  0
EOF
