  0
SECTION
  2
ENTITIES
  0
LINE
  8
APS_GEOMETRY
 10
6.253314
 11
24.128314
 20
6.935622
 21
6.935622
  0
LINE
  8
APS_GEOMETRY
 10
24.128314
 11
24.128314
 20
6.935622
 21
18.935622
  0
LINE
  8
APS_GEOMETRY
 10
24.128314
 11
6.253314
 20
18.935622
 21
18.935622
  0
LINE
  8
APS_GEOMETRY
 10
6.253314
 11
6.253314
 20
18.935622
 21
6.935622
  0
LINE
  8
CONSTRUCTION
 10
4.690814
 11
25.690814
 20
5.435622
 21
5.435622
  0
LINE
  8
CONSTRUCTION
 10
25.690814
 11
25.690814
 20
5.435622
 21
20.435622
  0
LINE
  8
CONSTRUCTION
 10
25.690814
 11
4.690814
 20
20.435622
 21
20.435622
  0
LINE
  8
CONSTRUCTION
 10
4.690814
 11
4.690814
 20
20.435622
 21
5.435622
  0
LINE
  8
DIMENSIONS
 10
4.690814
 11
13.481022
 20
22.177365
 21
22.177365
  0
LINE
  8
DIMENSIONS
 10
16.900606
 11
25.690814
 20
22.177365
 21
22.177365
  0
LINE
  8
DIMENSIONS
 10
6.690814
 11
4.690814
 20
21.843965
 21
22.177365
  0
LINE
  8
DIMENSIONS
 10
4.690814
 11
6.690814
 20
22.177365
 21
22.510765
  0
LINE
  8
DIMENSIONS
 10
6.690814
 11
6.690814
 20
22.510765
 21
21.843965
  0
LINE
  8
DIMENSIONS
 10
23.690814
 11
25.690814
 20
22.510765
 21
22.177365
  0
LINE
  8
DIMENSIONS
 10
25.690814
 11
23.690814
 20
22.177365
 21
21.843965
  0
LINE
  8
DIMENSIONS
 10
23.690814
 11
23.690814
 20
21.843965
 21
22.510765
  0
LINE
  8
DIMENSIONS
 10
3.690814
 11
1.523111
 20
5.435622
 21
5.435622
  0
LINE
  8
DIMENSIONS
 10
3.690814
 11
1.523111
 20
20.435622
 21
20.435622
  0
LINE
  8
DIMENSIONS
 10
2.523111
 11
2.523111
 20
5.435622
 21
11.419396
  0
LINE
  8
DIMENSIONS
 10
2.523111
 11
2.523111
 20
14.436378
 21
20.435622
  0
LINE
  8
DIMENSIONS
 10
2.856511
 11
2.523111
 20
7.435622
 21
5.435622
  0
LINE
  8
DIMENSIONS
 10
2.523111
 11
2.189711
 20
5.435622
 21
7.435622
  0
LINE
  8
DIMENSIONS
 10
2.189711
 11
2.856511
 20
7.435622
 21
7.435622
  0
LINE
  8
DIMENSIONS
 10
2.189711
 11
2.523111
 20
18.435622
 21
20.435622
  0
LINE
  8
DIMENSIONS
 10
2.523111
 11
2.856511
 20
20.435622
 21
18.435622
  0
LINE
  8
DIMENSIONS
 10
2.856511
 11
2.189711
 20
18.435622
 21
18.435622
  0
LINE
  8
DIMENSIONS
 10
6.253314
 11
6.253314
 20
5.935622
 21
2.159689
  0
LINE
  8
DIMENSIONS
 10
24.128314
 11
24.128314
 20
5.935622
 21
2.159689
  0
LINE
  8
DIMENSIONS
 10
6.253314
 11
10.253658
 20
3.159689
 21
3.159689
  0
LINE
  8
DIMENSIONS
 10
20.12797
 11
24.128314
 20
3.159689
 21
3.159689
  0
LINE
  8
DIMENSIONS
 10
8.253314
 11
6.253314
 20
2.826289
 21
3.159689
  0
LINE
  8
DIMENSIONS
 10
6.253314
 11
8.253314
 20
3.159689
 21
3.493089
  0
LINE
  8
DIMENSIONS
 10
8.253314
 11
8.253314
 20
3.493089
 21
2.826289
  0
LINE
  8
DIMENSIONS
 10
22.128314
 11
24.128314
 20
3.493089
 21
3.159689
  0
LINE
  8
DIMENSIONS
 10
24.128314
 11
22.128314
 20
3.159689
 21
2.826289
  0
LINE
  8
DIMENSIONS
 10
22.128314
 11
22.128314
 20
2.826289
 21
3.493089
  0
LINE
  8
DIMENSIONS
 10
25.128314
 11
29.472049
 20
18.935622
 21
18.935622
  0
LINE
  8
DIMENSIONS
 10
25.128314
 11
29.472049
 20
6.935622
 21
6.935622
  0
LINE
  8
DIMENSIONS
 10
28.472049
 11
28.472049
 20
18.935622
 21
14.441912
  0
LINE
  8
DIMENSIONS
 10
28.472049
 11
28.472049
 20
11.435613
 21
6.935622
  0
LINE
  8
DIMENSIONS
 10
28.138649
 11
28.472049
 20
16.935622
 21
18.935622
  0
LINE
  8
DIMENSIONS
 10
28.472049
 11
28.805449
 20
18.935622
 21
16.935622
  0
LINE
  8
DIMENSIONS
 10
28.805449
 11
28.138649
 20
16.935622
 21
16.935622
  0
LINE
  8
DIMENSIONS
 10
28.805449
 11
28.472049
 20
8.935622
 21
6.935622
  0
LINE
  8
DIMENSIONS
 10
28.472049
 11
28.138649
 20
6.935622
 21
8.935622
  0
LINE
  8
DIMENSIONS
 10
28.138649
 11
28.805449
 20
8.935622
 21
8.935622
  0
TEXT
  8
DIMENSIONS
 10
1.254109
 20
11.935622
 30
0.0
 40
2.0
 50
0.0
  1
15
  0
TEXT
  8
DIMENSIONS
 10
13.981022
 20
21.177365
 30
0.0
 40
2.0
 50
0.0
  1
21
  0
TEXT
  8
TEXT
 10
15.027965
 20
28.77963
 30
0.0
 40
1.5
 50
0.0
  1
AS 329
  0
TEXT
  8
TEXT
 10
15.027965
 20
26.52963
 30
0.0
 40
1.5
 50
0.0
  1
Undermount Stainless Steel
  0
TEXT
  8
TEXT
 10
15.027965
 20
24.27963
 30
0.0
 40
1.5
 50
0.0
  1
Cutout is flush to sink rim
  0
TEXT
  8
DIMENSIONS
 10
10.753658
 20
2.159689
 30
0.0
 40
2.0
 50
0.0
  1
17.875
  0
TEXT
  8
DIMENSIONS
 10
27.262258
 20
11.935622
 30
0.0
 40
2.0
 50
0.0
  1
12
  0
ENDSEC
  0
EOF
