  0
SECTION
  2
ENTITIES
  0
LINE
  8
APS_GEOMETRY
 10
0.84372
 11
28.59372
 20
-4.937473
 21
-4.937473
  0
ARC
  8
APS_GEOMETRY
 10
28.59372
 20
-5.687473
 40
0.75
 50
0.0
 51
90.0
  0
LINE
  8
APS_GEOMETRY
 10
29.34372
 11
29.34372
 20
-5.687473
 21
-20.124973
  0
ARC
  8
APS_GEOMETRY
 10
28.59372
 20
-20.124973
 40
0.75
 50
270.0
 51
0.0
  0
LINE
  8
APS_GEOMETRY
 10
28.59372
 11
0.84372
 20
-20.874973
 21
-20.874973
  0
ARC
  8
APS_GEOMETRY
 10
0.84372
 20
-20.124973
 40
0.75
 50
180.0
 51
270.0
  0
LINE
  8
APS_GEOMETRY
 10
0.09372
 11
0.09372
 20
-20.124973
 21
-5.687473
  0
ARC
  8
APS_GEOMETRY
 10
0.84372
 20
-5.687473
 40
0.75
 50
90.0
 51
180.0
  0
LINE
  8
APS_GEOMETRY
 10
-0.53128
 11
29.96872
 20
-4.312473
 21
-4.312473
  0
LINE
  8
APS_GEOMETRY
 10
29.96872
 11
29.96872
 20
-4.312473
 21
-21.499973
  0
LINE
  8
APS_GEOMETRY
 10
29.96872
 11
-0.53128
 20
-21.499973
 21
-21.499973
  0
LINE
  8
APS_GEOMETRY
 10
-0.53128
 11
-0.53128
 20
-21.499973
 21
-4.312473
  0
LINE
  8
APS_GEOMETRY
 10
27.668489
 11
25.168489
 20
-17.733624
 21
-17.733624
  0
ARC
  8
APS_GEOMETRY
 10
25.324739
 20
-17.889874
 40
0.15625
 50
90.0
 51
180.0
  0
LINE
  8
APS_GEOMETRY
 10
25.168489
 11
25.168489
 20
-17.889874
 21
-20.233624
  0
LINE
  8
APS_GEOMETRY
 10
27.668489
 11
25.480989
 20
-15.858624
 21
-15.858624
  0
ARC
  8
APS_GEOMETRY
 10
25.480989
 20
-16.171124
 40
0.3125
 50
90.0
 51
180.0
  0
LINE
  8
APS_GEOMETRY
 10
25.168489
 11
25.168489
 20
-16.171124
 21
-17.733624
  0
LINE
  8
APS_GEOMETRY
 10
14.71872
 11
14.71872
 20
-4.937473
 21
-20.874973
  0
LINE
  8
APS_GEOMETRY
 10
0.09372
 11
29.34372
 20
-12.906223
 21
-12.906223
  0
LINE
  8
DIMENSIONS
 10
0.09372
 11
0.09372
 20
-14.591273
 21
-24.945159
  0
LINE
  8
DIMENSIONS
 10
29.34372
 11
29.34372
 20
-14.591273
 21
-24.945159
  0
LINE
  8
DIMENSIONS
 10
0.09372
 11
9.470606
 20
-23.945159
 21
-23.945159
  0
LINE
  8
DIMENSIONS
 10
19.966835
 11
29.34372
 20
-23.945159
 21
-23.945159
  0
LINE
  8
DIMENSIONS
 10
2.09372
 11
0.09372
 20
-24.278559
 21
-23.945159
  0
LINE
  8
DIMENSIONS
 10
0.09372
 11
2.09372
 20
-23.945159
 21
-23.611759
  0
LINE
  8
DIMENSIONS
 10
2.09372
 11
2.09372
 20
-23.611759
 21
-24.278559
  0
LINE
  8
DIMENSIONS
 10
27.34372
 11
29.34372
 20
-23.611759
 21
-23.945159
  0
LINE
  8
DIMENSIONS
 10
29.34372
 11
27.34372
 20
-23.945159
 21
-24.278559
  0
LINE
  8
DIMENSIONS
 10
27.34372
 11
27.34372
 20
-24.278559
 21
-23.611759
  0
LINE
  8
DIMENSIONS
 10
16.196903
 11
37.223193
 20
-4.937473
 21
-4.937473
  0
LINE
  8
DIMENSIONS
 10
16.196903
 11
37.223193
 20
-20.874973
 21
-20.874973
  0
LINE
  8
DIMENSIONS
 10
36.223193
 11
36.223193
 20
-4.937473
 21
-11.399929
  0
LINE
  8
DIMENSIONS
 10
36.223193
 11
36.223193
 20
-14.431027
 21
-20.874973
  0
LINE
  8
DIMENSIONS
 10
35.889793
 11
36.223193
 20
-6.937473
 21
-4.937473
  0
LINE
  8
DIMENSIONS
 10
36.223193
 11
36.556593
 20
-4.937473
 21
-6.937473
  0
LINE
  8
DIMENSIONS
 10
36.556593
 11
35.889793
 20
-6.937473
 21
-6.937473
  0
LINE
  8
DIMENSIONS
 10
36.556593
 11
36.223193
 20
-18.874973
 21
-20.874973
  0
LINE
  8
DIMENSIONS
 10
36.223193
 11
35.889793
 20
-20.874973
 21
-18.874973
  0
LINE
  8
DIMENSIONS
 10
35.889793
 11
36.556593
 20
-18.874973
 21
-18.874973
  0
TEXT
  8
TEXT
 10
15.431484
 20
-16.006142
 30
0.0
 40
0.75
 50
0.0
  1
W/ SINK RIM
  0
TEXT
  8
TEXT
 10
17.754388
 20
-14.881142
 30
0.0
 40
0.75
 50
0.0
  1
E: CUTOUT IS FLUSH
  0
TEXT
  8
TEXT
 10
15.431484
 20
-14.881142
 30
0.0
 40
0.75
 50
0.0
  1
*NOT
  0
TEXT
  8
TEXT
 10
1.395812
 20
-9.658301
 30
0.0
 40
2.5
 50
0.0
  1
AS333
  0
TEXT
  8
DIMENSIONS
 10
9.970606
 20
-24.945159
 30
0.0
 40
2.0
 50
0.0
  1
29.250
  0
TEXT
  8
TEXT
 10
2.412869
 20
-11.209554
 30
0.0
 40
1.0
 50
0.0
  1

  0
TEXT
  8
DIMENSIONS
 10
30.884593
 20
-13.906223
 30
0.0
 40
2.0
 50
0.0
  1
15.9375
  0
ENDSEC
  0
EOF
