  0
SECTION
  2
ENTITIES
  0
LINE
  8
APS_GEOMETRY
 10
0.875
 11
30.9375
 20
0.25
 21
0.25
  0
ARC
  8
APS_GEOMETRY
 10
30.9375
 20
0.875
 40
0.625
 50
270.0
 51
0.0
  0
LINE
  8
APS_GEOMETRY
 10
31.5625
 11
31.5625
 20
0.875
 21
17.8125
  0
ARC
  8
APS_GEOMETRY
 10
30.9375
 20
17.8125
 40
0.625
 50
0.0
 51
90.0
  0
LINE
  8
APS_GEOMETRY
 10
30.9375
 11
0.875
 20
18.4375
 21
18.4375
  0
ARC
  8
APS_GEOMETRY
 10
0.875
 20
17.8125
 40
0.625
 50
90.0
 51
180.0
  0
LINE
  8
APS_GEOMETRY
 10
0.25
 11
0.25
 20
17.8125
 21
0.875
  0
ARC
  8
APS_GEOMETRY
 10
0.875
 20
0.875
 40
0.625
 50
180.0
 51
270.0
  0
LINE
  8
DIMENSIONS
 10
31.9375
 11
39.077907
 20
18.4375
 21
18.4375
  0
LINE
  8
DIMENSIONS
 10
31.9375
 11
39.077907
 20
0.25
 21
0.25
  0
LINE
  8
DIMENSIONS
 10
38.077907
 11
38.077907
 20
18.4375
 21
10.844876
  0
LINE
  8
DIMENSIONS
 10
38.077907
 11
38.077907
 20
7.824754
 21
0.25
  0
LINE
  8
DIMENSIONS
 10
37.744507
 11
38.077907
 20
16.4375
 21
18.4375
  0
LINE
  8
DIMENSIONS
 10
38.077907
 11
38.411307
 20
18.4375
 21
16.4375
  0
LINE
  8
DIMENSIONS
 10
38.411307
 11
37.744507
 20
16.4375
 21
16.4375
  0
LINE
  8
DIMENSIONS
 10
38.411307
 11
38.077907
 20
2.25
 21
0.25
  0
LINE
  8
DIMENSIONS
 10
38.077907
 11
37.744507
 20
0.25
 21
2.25
  0
LINE
  8
DIMENSIONS
 10
37.744507
 11
38.411307
 20
2.25
 21
2.25
  0
LINE
  8
DIMENSIONS
 10
0.25
 11
0.25
 20
18.8125
 21
21.850026
  0
LINE
  8
DIMENSIONS
 10
31.5625
 11
31.5625
 20
18.8125
 21
21.850026
  0
LINE
  8
DIMENSIONS
 10
0.25
 11
15.70372
 20
20.850026
 21
20.850026
  0
LINE
  8
DIMENSIONS
 10
24.789942
 11
31.5625
 20
20.850026
 21
20.850026
  0
LINE
  8
DIMENSIONS
 10
2.25
 11
0.25
 20
20.516626
 21
20.850026
  0
LINE
  8
DIMENSIONS
 10
0.25
 11
2.25
 20
20.850026
 21
21.183426
  0
LINE
  8
DIMENSIONS
 10
2.25
 11
2.25
 20
21.183426
 21
20.516626
  0
LINE
  8
DIMENSIONS
 10
29.5625
 11
31.5625
 20
21.183426
 21
20.850026
  0
LINE
  8
DIMENSIONS
 10
31.5625
 11
29.5625
 20
20.850026
 21
20.516626
  0
LINE
  8
DIMENSIONS
 10
29.5625
 11
29.5625
 20
20.516626
 21
21.183426
  0
LINE
  8
APS_GEOMETRY
 10
-1.0
 11
32.8125
 20
-1.0
 21
-1.0
  0
LINE
  8
APS_GEOMETRY
 10
32.8125
 11
32.8125
 20
-1.0
 21
19.6875
  0
LINE
  8
APS_GEOMETRY
 10
32.8125
 11
-1.0
 20
19.6875
 21
19.6875
  0
LINE
  8
APS_GEOMETRY
 10
-1.0
 11
-1.0
 20
19.6875
 21
-1.0
  0
LINE
  8
DIMENSIONS
 10
-2.0
 11
-8.57845
 20
19.6875
 21
19.6875
  0
LINE
  8
DIMENSIONS
 10
-2.0
 11
-8.57845
 20
-1.0
 21
-1.0
  0
LINE
  8
DIMENSIONS
 10
-7.57845
 11
-7.57845
 20
19.6875
 21
10.850039
  0
LINE
  8
DIMENSIONS
 10
-7.57845
 11
-7.57845
 20
7.819356
 21
-1.0
  0
LINE
  8
DIMENSIONS
 10
-7.91185
 11
-7.57845
 20
17.6875
 21
19.6875
  0
LINE
  8
DIMENSIONS
 10
-7.57845
 11
-7.24505
 20
19.6875
 21
17.6875
  0
LINE
  8
DIMENSIONS
 10
-7.24505
 11
-7.91185
 20
17.6875
 21
17.6875
  0
LINE
  8
DIMENSIONS
 10
-7.24505
 11
-7.57845
 20
1.0
 21
-1.0
  0
LINE
  8
DIMENSIONS
 10
-7.57845
 11
-7.91185
 20
-1.0
 21
1.0
  0
LINE
  8
DIMENSIONS
 10
-7.91185
 11
-7.24505
 20
1.0
 21
1.0
  0
LINE
  8
DIMENSIONS
 10
-1.0
 11
-1.0
 20
-2.0
 21
-4.815103
  0
LINE
  8
DIMENSIONS
 10
32.8125
 11
32.8125
 20
-2.0
 21
-4.815103
  0
LINE
  8
DIMENSIONS
 10
-1.0
 11
10.982556
 20
-3.815103
 21
-3.815103
  0
LINE
  8
DIMENSIONS
 10
20.829944
 11
32.8125
 20
-3.815103
 21
-3.815103
  0
LINE
  8
DIMENSIONS
 10
1.0
 11
-1.0
 20
-4.148503
 21
-3.815103
  0
LINE
  8
DIMENSIONS
 10
-1.0
 11
1.0
 20
-3.815103
 21
-3.481703
  0
LINE
  8
DIMENSIONS
 10
1.0
 11
1.0
 20
-3.481703
 21
-4.148503
  0
LINE
  8
DIMENSIONS
 10
30.8125
 11
32.8125
 20
-3.481703
 21
-3.815103
  0
LINE
  8
DIMENSIONS
 10
32.8125
 11
30.8125
 20
-3.815103
 21
-4.148503
  0
LINE
  8
DIMENSIONS
 10
30.8125
 11
30.8125
 20
-4.148503
 21
-3.481703
  0
LINE
  8
APS_GEOMETRY
 10
30.9375
 11
35.858098
 20
18.4375
 21
23.908236
  0
CIRCLE
  8
APS_GEOMETRY
 10
37.120532
 20
25.769545
 40
0.4
  0
LINE
  8
APS_GEOMETRY
 10
40.994024
 11
38.327358
 20
25.36801
 21
25.368029
  0
ARC
  8
APS_GEOMETRY
 10
39.737268
 20
25.369913
 40
1.409911
 50
121.813563
 51
180.07656
  0
LINE
  8
APS_GEOMETRY
 10
38.994024
 11
40.505125
 20
26.56801
 21
27.501345
  0
ARC
  8
APS_GEOMETRY
 10
40.013256
 20
28.345781
 40
0.977244
 50
300.220013
 51
59.779436
  0
ARC
  8
APS_GEOMETRY
 10
39.749543
 20
27.786119
 40
1.594489
 50
61.713834
 51
118.283685
  0
ARC
  8
APS_GEOMETRY
 10
39.441402
 20
28.349566
 40
0.952311
 50
118.0207
 51
169.4717
  0
ARC
  8
APS_GEOMETRY
 10
43.184469
 20
26.835052
 40
1.492533
 50
202.7274
 51
247.2726
  0
ARC
  8
APS_GEOMETRY
 10
43.207826
 20
26.862377
 40
1.5268
 50
246.860287
 51
293.140726
  0
ARC
  8
APS_GEOMETRY
 10
43.240158
 20
26.80088
 40
1.457556
 50
292.922067
 51
357.893283
  0
ARC
  8
APS_GEOMETRY
 10
43.384511
 20
26.793275
 40
1.313022
 50
357.993348
 51
71.191207
  0
ARC
  8
APS_GEOMETRY
 10
43.207758
 20
26.271511
 40
1.863911
 50
71.219129
 51
108.775441
  0
ARC
  8
APS_GEOMETRY
 10
43.089758
 20
26.591237
 40
1.523245
 50
108.443904
 51
138.941081
  0
LINE
  8
APS_GEOMETRY
 10
41.941179
 11
42.252291
 20
27.591757
 21
29.369541
  0
LINE
  8
APS_GEOMETRY
 10
42.252291
 11
44.252291
 20
29.369541
 21
29.369541
  0
LINE
  8
APS_GEOMETRY
 10
45.69186
 11
45.49186
 20
29.115248
 21
29.115248
  0
LINE
  8
APS_GEOMETRY
 10
45.49186
 11
45.49186
 20
29.115248
 21
29.315248
  0
LINE
  8
APS_GEOMETRY
 10
45.49186
 11
45.69186
 20
29.315248
 21
29.315248
  0
LINE
  8
APS_GEOMETRY
 10
45.69186
 11
45.69186
 20
29.315248
 21
28.835248
  0
LINE
  8
APS_GEOMETRY
 10
45.69186
 11
45.65186
 20
28.835248
 21
28.555248
  0
LINE
  8
APS_GEOMETRY
 10
45.65186
 11
45.57186
 20
28.555248
 21
28.355248
  0
LINE
  8
APS_GEOMETRY
 10
46.69186
 11
46.49186
 20
29.115248
 21
29.115248
  0
LINE
  8
APS_GEOMETRY
 10
46.49186
 11
46.49186
 20
29.115248
 21
29.315248
  0
LINE
  8
APS_GEOMETRY
 10
46.49186
 11
46.69186
 20
29.315248
 21
29.315248
  0
LINE
  8
APS_GEOMETRY
 10
46.69186
 11
46.69186
 20
29.315248
 21
28.835248
  0
LINE
  8
APS_GEOMETRY
 10
46.69186
 11
46.65186
 20
28.835248
 21
28.555248
  0
LINE
  8
APS_GEOMETRY
 10
46.65186
 11
46.57186
 20
28.555248
 21
28.355248
  0
ARC
  8
APS_GEOMETRY
 10
52.458984
 20
26.691684
 40
1.3096
 50
218.6887
 51
321.3113
  0
ARC
  8
APS_GEOMETRY
 10
51.589139
 20
27.406424
 40
2.435378
 50
320.978113
 51
39.020738
  0
ARC
  8
APS_GEOMETRY
 10
52.459007
 20
28.121135
 40
1.3096
 50
38.688157
 51
141.312908
  0
ARC
  8
APS_GEOMETRY
 10
53.328853
 20
27.406395
 40
2.435378
 50
140.978975
 51
219.021025
  0
LINE
  8
APS_GEOMETRY
 10
54.381207
 11
55.981207
 20
29.286842
 21
25.286842
  0
LINE
  8
APS_GEOMETRY
 10
55.981207
 11
56.11454
 20
25.286842
 21
25.286842
  0
LINE
  8
APS_GEOMETRY
 10
56.11454
 11
57.71454
 20
25.286842
 21
29.286842
  0
LINE
  8
APS_GEOMETRY
 10
60.694776
 11
58.028109
 20
29.368029
 21
29.368029
  0
LINE
  8
APS_GEOMETRY
 10
58.028109
 11
58.028109
 20
29.368029
 21
25.368029
  0
LINE
  8
APS_GEOMETRY
 10
58.028109
 11
60.694776
 20
25.368029
 21
25.368029
  0
LINE
  8
APS_GEOMETRY
 10
58.072553
 11
59.805887
 20
27.501363
 21
27.501363
  0
LINE
  8
APS_GEOMETRY
 10
61.494776
 11
63.405887
 20
27.323585
 21
27.323585
  0
ARC
  8
APS_GEOMETRY
 10
63.405887
 20
28.345807
 40
1.022222
 50
270.0
 51
90.0
  0
LINE
  8
APS_GEOMETRY
 10
63.405887
 11
61.494776
 20
29.368029
 21
29.368029
  0
LINE
  8
APS_GEOMETRY
 10
61.494776
 11
61.494776
 20
29.368029
 21
25.368029
  0
LINE
  8
APS_GEOMETRY
 10
63.272553
 11
64.161442
 20
27.323585
 21
25.368029
  0
LINE
  8
APS_GEOMETRY
 10
65.272553
 11
68.072554
 20
27.501363
 21
27.501363
  0
LINE
  8
APS_GEOMETRY
 10
68.116998
 11
68.116998
 20
29.368029
 21
25.368029
  0
LINE
  8
APS_GEOMETRY
 10
65.228109
 11
65.228109
 20
29.368029
 21
25.368029
  0
LINE
  8
APS_GEOMETRY
 10
69.005887
 11
71.450332
 20
26.576102
 21
26.576102
  0
LINE
  8
APS_GEOMETRY
 10
68.516998
 11
70.072554
 20
25.368029
 21
29.368029
  0
LINE
  8
APS_GEOMETRY
 10
70.072554
 11
70.428109
 20
29.368029
 21
29.368029
  0
LINE
  8
APS_GEOMETRY
 10
70.428109
 11
71.894776
 20
29.368029
 21
25.368029
  0
LINE
  8
APS_GEOMETRY
 10
72.294776
 11
72.294776
 20
25.368029
 21
29.368029
  0
LINE
  8
APS_GEOMETRY
 10
72.294776
 11
72.516998
 20
29.368029
 21
29.368029
  0
LINE
  8
APS_GEOMETRY
 10
72.516998
 11
74.739221
 20
29.368029
 21
25.368029
  0
LINE
  8
APS_GEOMETRY
 10
74.739221
 11
74.961443
 20
25.368029
 21
25.368029
  0
LINE
  8
APS_GEOMETRY
 10
74.961443
 11
74.961443
 20
25.368029
 21
29.368029
  0
ARC
  8
APS_GEOMETRY
 10
76.039743
 20
27.397532
 40
2.431511
 50
31.026839
 51
40.045456
  0
ARC
  8
APS_GEOMETRY
 10
76.878912
 20
28.143367
 40
1.3096
 50
38.687092
 51
141.311843
  0
ARC
  8
APS_GEOMETRY
 10
77.748774
 20
27.428648
 40
2.435378
 50
140.979023
 51
219.021731
  0
ARC
  8
APS_GEOMETRY
 10
76.875159
 20
26.711647
 40
1.305245
 50
218.714375
 51
270.166398
  0
ARC
  8
APS_GEOMETRY
 10
76.875957
 20
26.767161
 40
1.360756
 50
270.126
 51
341.6935
  0
LINE
  8
APS_GEOMETRY
 10
78.167845
 11
78.167824
 20
26.339747
 21
27.361961
  0
LINE
  8
APS_GEOMETRY
 10
78.167824
 11
77.145602
 20
27.361961
 21
27.361961
  0
LINE
  8
APS_GEOMETRY
 10
0.875
 11
30.9375
 20
0.125
 21
0.125
  0
ARC
  8
APS_GEOMETRY
 10
30.9375
 20
0.875
 40
0.75
 50
270.0
 51
0.0
  0
LINE
  8
APS_GEOMETRY
 10
31.6875
 11
31.6875
 20
0.875
 21
17.8125
  0
ARC
  8
APS_GEOMETRY
 10
30.9375
 20
17.8125
 40
0.75
 50
0.0
 51
90.0
  0
LINE
  8
APS_GEOMETRY
 10
30.9375
 11
0.875
 20
18.5625
 21
18.5625
  0
ARC
  8
APS_GEOMETRY
 10
0.875
 20
17.8125
 40
0.75
 50
90.0
 51
180.0
  0
LINE
  8
APS_GEOMETRY
 10
0.125
 11
0.125
 20
17.8125
 21
0.875
  0
ARC
  8
APS_GEOMETRY
 10
0.875
 20
0.875
 40
0.75
 50
180.0
 51
270.0
  0
LINE
  8
APS_GEOMETRY
 10
0.125
 11
-5.470594
 20
17.8125
 21
22.297456
  0
CIRCLE
  8
APS_GEOMETRY
 10
-49.199984
 20
22.507441
 40
0.4
  0
LINE
  8
APS_GEOMETRY
 10
-47.993157
 11
-47.306906
 20
22.105925
 21
22.105925
  0
LINE
  8
APS_GEOMETRY
 10
-47.306906
 11
-46.620656
 20
22.105925
 21
22.105925
  0
LINE
  8
APS_GEOMETRY
 10
-47.306906
 11
-47.306906
 20
22.105925
 21
26.105925
  0
LINE
  8
APS_GEOMETRY
 10
-47.306906
 11
-47.993157
 20
26.105925
 21
25.419675
  0
LINE
  8
APS_GEOMETRY
 10
-43.15399
 11
-45.820656
 20
22.105906
 21
22.105925
  0
ARC
  8
APS_GEOMETRY
 10
-44.410746
 20
22.107809
 40
1.409911
 50
121.813563
 51
180.07656
  0
LINE
  8
APS_GEOMETRY
 10
-45.15399
 11
-43.642889
 20
23.305906
 21
24.239241
  0
ARC
  8
APS_GEOMETRY
 10
-44.134758
 20
25.083677
 40
0.977244
 50
300.220013
 51
59.779436
  0
ARC
  8
APS_GEOMETRY
 10
-44.398471
 20
24.524014
 40
1.594489
 50
61.713834
 51
118.283685
  0
ARC
  8
APS_GEOMETRY
 10
-44.706613
 20
25.087462
 40
0.952311
 50
118.0207
 51
169.4717
  0
ARC
  8
APS_GEOMETRY
 10
-40.963546
 20
23.572948
 40
1.492533
 50
202.7274
 51
247.2726
  0
ARC
  8
APS_GEOMETRY
 10
-40.940188
 20
23.600273
 40
1.5268
 50
246.860287
 51
293.140726
  0
ARC
  8
APS_GEOMETRY
 10
-40.907856
 20
23.538776
 40
1.457556
 50
292.922067
 51
357.893283
  0
ARC
  8
APS_GEOMETRY
 10
-40.763503
 20
23.531171
 40
1.313022
 50
357.993348
 51
71.191207
  0
ARC
  8
APS_GEOMETRY
 10
-40.940256
 20
23.009407
 40
1.863911
 50
71.219129
 51
108.775441
  0
ARC
  8
APS_GEOMETRY
 10
-41.058256
 20
23.329133
 40
1.523245
 50
108.443904
 51
138.941081
  0
LINE
  8
APS_GEOMETRY
 10
-42.206835
 11
-41.895723
 20
24.329653
 21
26.107437
  0
LINE
  8
APS_GEOMETRY
 10
-41.895723
 11
-39.895723
 20
26.107437
 21
26.107437
  0
LINE
  8
APS_GEOMETRY
 10
-38.456155
 11
-38.656155
 20
25.853144
 21
25.853144
  0
LINE
  8
APS_GEOMETRY
 10
-38.656155
 11
-38.656155
 20
25.853144
 21
26.053144
  0
LINE
  8
APS_GEOMETRY
 10
-38.656155
 11
-38.456155
 20
26.053144
 21
26.053144
  0
LINE
  8
APS_GEOMETRY
 10
-38.456155
 11
-38.456155
 20
26.053144
 21
25.573144
  0
LINE
  8
APS_GEOMETRY
 10
-38.456155
 11
-38.496155
 20
25.573144
 21
25.293144
  0
LINE
  8
APS_GEOMETRY
 10
-38.496155
 11
-38.576155
 20
25.293144
 21
25.093144
  0
LINE
  8
APS_GEOMETRY
 10
-37.456155
 11
-37.656155
 20
25.853144
 21
25.853144
  0
LINE
  8
APS_GEOMETRY
 10
-37.656155
 11
-37.656155
 20
25.853144
 21
26.053144
  0
LINE
  8
APS_GEOMETRY
 10
-37.656155
 11
-37.456155
 20
26.053144
 21
26.053144
  0
LINE
  8
APS_GEOMETRY
 10
-37.456155
 11
-37.456155
 20
26.053144
 21
25.573144
  0
LINE
  8
APS_GEOMETRY
 10
-37.456155
 11
-37.496155
 20
25.573144
 21
25.293144
  0
LINE
  8
APS_GEOMETRY
 10
-37.496155
 11
-37.576155
 20
25.293144
 21
25.093144
  0
ARC
  8
APS_GEOMETRY
 10
-31.68903
 20
23.42958
 40
1.3096
 50
218.6887
 51
321.3113
  0
ARC
  8
APS_GEOMETRY
 10
-32.558875
 20
24.14432
 40
2.435378
 50
320.978113
 51
39.020738
  0
ARC
  8
APS_GEOMETRY
 10
-31.689007
 20
24.859031
 40
1.3096
 50
38.688157
 51
141.312908
  0
ARC
  8
APS_GEOMETRY
 10
-30.819161
 20
24.144291
 40
2.435378
 50
140.978975
 51
219.021025
  0
LINE
  8
APS_GEOMETRY
 10
-29.766807
 11
-28.166807
 20
26.024738
 21
22.024738
  0
LINE
  8
APS_GEOMETRY
 10
-28.166807
 11
-28.033474
 20
22.024738
 21
22.024738
  0
LINE
  8
APS_GEOMETRY
 10
-28.033474
 11
-26.433474
 20
22.024738
 21
26.024738
  0
LINE
  8
APS_GEOMETRY
 10
-23.453239
 11
-26.119905
 20
26.105925
 21
26.105925
  0
LINE
  8
APS_GEOMETRY
 10
-26.119905
 11
-26.119905
 20
26.105925
 21
22.105925
  0
LINE
  8
APS_GEOMETRY
 10
-26.119905
 11
-23.453239
 20
22.105925
 21
22.105925
  0
LINE
  8
APS_GEOMETRY
 10
-26.075461
 11
-24.342128
 20
24.239258
 21
24.239258
  0
LINE
  8
APS_GEOMETRY
 10
-22.653239
 11
-20.742127
 20
24.061481
 21
24.061481
  0
ARC
  8
APS_GEOMETRY
 10
-20.742127
 20
25.083703
 40
1.022222
 50
270.0
 51
90.0
  0
LINE
  8
APS_GEOMETRY
 10
-20.742127
 11
-22.653239
 20
26.105925
 21
26.105925
  0
LINE
  8
APS_GEOMETRY
 10
-22.653239
 11
-22.653239
 20
26.105925
 21
22.105925
  0
LINE
  8
APS_GEOMETRY
 10
-20.875461
 11
-19.986572
 20
24.061481
 21
22.105925
  0
LINE
  8
APS_GEOMETRY
 10
-18.875461
 11
-16.075461
 20
24.239258
 21
24.239258
  0
LINE
  8
APS_GEOMETRY
 10
-16.031016
 11
-16.031016
 20
26.105925
 21
22.105925
  0
LINE
  8
APS_GEOMETRY
 10
-18.919905
 11
-18.919905
 20
26.105925
 21
22.105925
  0
LINE
  8
APS_GEOMETRY
 10
-15.142127
 11
-12.697683
 20
23.313998
 21
23.313998
  0
LINE
  8
APS_GEOMETRY
 10
-15.631016
 11
-14.075461
 20
22.105925
 21
26.105925
  0
LINE
  8
APS_GEOMETRY
 10
-14.075461
 11
-13.719905
 20
26.105925
 21
26.105925
  0
LINE
  8
APS_GEOMETRY
 10
-13.719905
 11
-12.253238
 20
26.105925
 21
22.105925
  0
LINE
  8
APS_GEOMETRY
 10
-11.853238
 11
-11.853238
 20
22.105925
 21
26.105925
  0
LINE
  8
APS_GEOMETRY
 10
-11.853238
 11
-11.631016
 20
26.105925
 21
26.105925
  0
LINE
  8
APS_GEOMETRY
 10
-11.631016
 11
-9.408794
 20
26.105925
 21
22.105925
  0
LINE
  8
APS_GEOMETRY
 10
-9.408794
 11
-9.186571
 20
22.105925
 21
22.105925
  0
LINE
  8
APS_GEOMETRY
 10
-9.186571
 11
-9.186571
 20
22.105925
 21
26.105925
  0
ARC
  8
APS_GEOMETRY
 10
-8.108271
 20
24.135428
 40
2.431511
 50
31.026839
 51
40.045456
  0
ARC
  8
APS_GEOMETRY
 10
-7.269102
 20
24.881263
 40
1.3096
 50
38.687092
 51
141.311843
  0
ARC
  8
APS_GEOMETRY
 10
-6.39924
 20
24.166544
 40
2.435378
 50
140.979023
 51
219.021731
  0
ARC
  8
APS_GEOMETRY
 10
-7.272855
 20
23.449543
 40
1.305245
 50
218.714375
 51
270.166398
  0
ARC
  8
APS_GEOMETRY
 10
-7.272057
 20
23.505056
 40
1.360756
 50
270.126
 51
341.6935
  0
LINE
  8
APS_GEOMETRY
 10
-5.980169
 11
-5.98019
 20
23.077643
 21
24.099856
  0
LINE
  8
APS_GEOMETRY
 10
-5.98019
 11
-7.002412
 20
24.099856
 21
24.099856
  0
LINE
  8
APS_GEOMETRY
 10
-68.11204
 11
-54.169508
 20
23.899522
 21
23.899522
  0
LINE
  8
APS_GEOMETRY
 10
17.182093
 11
32.112151
 20
27.46947
 21
27.46947
  0
LINE
  8
APS_GEOMETRY
 10
1.71639
 11
4.160834
 20
40.612851
 21
40.612851
  0
LINE
  8
APS_GEOMETRY
 10
1.227501
 11
2.783056
 20
39.404778
 21
43.404778
  0
LINE
  8
APS_GEOMETRY
 10
2.783056
 11
3.138612
 20
43.404778
 21
43.404778
  0
LINE
  8
APS_GEOMETRY
 10
3.138612
 11
4.605279
 20
43.404778
 21
39.404778
  0
ARC
  8
APS_GEOMETRY
 10
6.316151
 20
41.831385
 40
1.644178
 50
42.9037
 51
122.5462
  0
ARC
  8
APS_GEOMETRY
 10
5.894098
 20
42.513477
 40
0.842222
 50
123.306702
 51
253.425563
  0
LINE
  8
APS_GEOMETRY
 10
5.653845
 11
6.987173
 20
41.706249
 21
41.261785
  0
ARC
  8
APS_GEOMETRY
 10
6.7157
 20
40.400582
 40
0.902978
 50
299.837943
 51
72.503854
  0
ARC
  8
APS_GEOMETRY
 10
6.298347
 20
41.119927
 40
1.734622
 50
240.02251
 51
299.973977
  0
ARC
  8
APS_GEOMETRY
 10
5.905909
 20
40.447363
 40
0.955956
 50
209.759272
 51
240.255342
  0
LINE
  8
APS_GEOMETRY
 10
8.396355
 11
9.596355
 20
41.165378
 21
41.165378
  0
LINE
  8
APS_GEOMETRY
 10
13.825052
 11
10.491718
 20
40.739483
 21
40.739483
  0
LINE
  8
APS_GEOMETRY
 10
10.491718
 11
10.491718
 20
40.739483
 21
40.961705
  0
LINE
  8
APS_GEOMETRY
 10
10.491718
 11
12.713941
 20
40.961705
 21
43.40615
  0
LINE
  8
APS_GEOMETRY
 10
12.713941
 11
12.936163
 20
43.40615
 21
43.40615
  0
LINE
  8
APS_GEOMETRY
 10
12.936163
 11
12.936163
 20
43.40615
 21
39.406149
  0
ARC
  8
APS_GEOMETRY
 10
15.706063
 20
40.683944
 40
1.247245
 50
208.751948
 51
258.48402
  0
ARC
  8
APS_GEOMETRY
 10
15.97034
 20
41.827476
 40
2.420711
 50
257.758312
 51
286.480382
  0
ARC
  8
APS_GEOMETRY
 10
16.345946
 20
40.599475
 40
1.136667
 50
285.885172
 51
325.197039
  0
ARC
  8
APS_GEOMETRY
 10
16.354849
 20
40.606737
 40
1.133556
 50
324.638795
 51
31.268726
  0
ARC
  8
APS_GEOMETRY
 10
16.317091
 20
40.593708
 40
1.172622
 50
30.855291
 51
75.402309
  0
ARC
  8
APS_GEOMETRY
 10
16.079292
 20
39.645402
 40
2.150267
 50
75.6389
 51
104.3611
  0
ARC
  8
APS_GEOMETRY
 10
14.754449
 20
44.018341
 40
2.4228
 50
289.068075
 51
345.63788
  0
LINE
  8
APS_GEOMETRY
 10
17.10153
 11
14.65707
 20
43.417366
 21
43.417358
  0
LINE
  8
APS_GEOMETRY
 10
20.847893
 11
18.181227
 20
39.404759
 21
39.404778
  0
ARC
  8
APS_GEOMETRY
 10
19.591137
 20
39.406662
 40
1.409911
 50
121.813563
 51
180.07656
  0
LINE
  8
APS_GEOMETRY
 10
18.847893
 11
20.358994
 20
40.604759
 21
41.538094
  0
ARC
  8
APS_GEOMETRY
 10
19.867125
 20
42.38253
 40
0.977244
 50
300.220013
 51
59.779436
  0
ARC
  8
APS_GEOMETRY
 10
19.603413
 20
41.822867
 40
1.594489
 50
61.713834
 51
118.283685
  0
ARC
  8
APS_GEOMETRY
 10
19.295271
 20
42.386315
 40
0.952311
 50
118.0207
 51
169.4717
  0
LINE
  8
APS_GEOMETRY
 10
1.337645
 11
4.226534
 20
37.406879
 21
37.406879
  0
LINE
  8
APS_GEOMETRY
 10
4.226534
 11
4.226508
 20
37.406879
 21
37.184668
  0
ARC
  8
APS_GEOMETRY
 10
6.954045
 20
33.540657
 40
4.551734
 50
126.8148
 51
181.6842
  0
LINE
  8
APS_GEOMETRY
 10
4.940664
 11
6.140664
 20
35.165378
 21
35.165378
  0
ARC
  8
APS_GEOMETRY
 10
8.306833
 20
34.871801
 40
1.492533
 50
202.7274
 51
247.2726
  0
ARC
  8
APS_GEOMETRY
 10
8.330191
 20
34.899126
 40
1.5268
 50
246.860287
 51
293.140726
  0
ARC
  8
APS_GEOMETRY
 10
8.362522
 20
34.837629
 40
1.457556
 50
292.922067
 51
357.893283
  0
ARC
  8
APS_GEOMETRY
 10
8.506876
 20
34.830024
 40
1.313022
 50
357.993348
 51
71.191207
  0
ARC
  8
APS_GEOMETRY
 10
8.330123
 20
34.30826
 40
1.863911
 50
71.219129
 51
108.775441
  0
ARC
  8
APS_GEOMETRY
 10
8.212123
 20
34.627986
 40
1.523245
 50
108.443904
 51
138.941081
  0
LINE
  8
APS_GEOMETRY
 10
7.063544
 11
7.374655
 20
35.628506
 21
37.40629
  0
LINE
  8
APS_GEOMETRY
 10
7.374655
 11
9.374655
 20
37.40629
 21
37.40629
  0
LINE
  8
APS_GEOMETRY
 10
10.630372
 11
11.830372
 20
35.165378
 21
35.165378
  0
LINE
  8
APS_GEOMETRY
 10
12.606098
 11
13.292348
 20
33.404778
 21
33.404778
  0
LINE
  8
APS_GEOMETRY
 10
13.292348
 11
13.978599
 20
33.404778
 21
33.404778
  0
LINE
  8
APS_GEOMETRY
 10
13.292348
 11
13.292348
 20
33.404778
 21
37.404778
  0
LINE
  8
APS_GEOMETRY
 10
13.292348
 11
12.606098
 20
37.404778
 21
36.718527
  0
ARC
  8
APS_GEOMETRY
 10
16.026411
 20
37.055238
 40
1.733156
 50
295.9876
 51
313.9964
  0
ARC
  8
APS_GEOMETRY
 10
16.630881
 20
36.430636
 40
0.863956
 50
313.930836
 51
46.072395
  0
ARC
  8
APS_GEOMETRY
 10
16.252465
 20
35.880186
 40
1.526845
 50
50.178678
 51
129.819556
  0
ARC
  8
APS_GEOMETRY
 10
15.781087
 20
36.452912
 40
0.785111
 50
130.163237
 51
229.839346
  0
ARC
  8
APS_GEOMETRY
 10
16.149879
 20
36.893287
 40
1.359511
 50
229.930688
 51
276.210455
  0
ARC
  8
APS_GEOMETRY
 10
16.444092
 20
34.190229
 40
1.359511
 50
49.934494
 51
96.213281
  0
ARC
  8
APS_GEOMETRY
 10
16.759878
 20
34.475104
 40
0.940044
 50
306.509514
 51
53.490801
  0
ARC
  8
APS_GEOMETRY
 10
16.252509
 20
35.155853
 40
1.789067
 50
233.400655
 51
306.598732
  0
ARC
  8
APS_GEOMETRY
 10
15.745131
 20
34.475111
 40
0.940044
 50
126.510158
 51
233.489989
  0
ARC
  8
APS_GEOMETRY
 10
16.902415
 20
32.948776
 40
2.855467
 50
112.535105
 51
126.952643
  0
TEXT
  8
DIMENSIONS
 10
34.013908
 20
8.34375
 30
0.0
 40
2.0
 50
0.0
  1
18.188
  0
TEXT
  8
DIMENSIONS
 10
16.150132
 20
19.850026
 30
0.0
 40
2.0
 50
0.0
  1
31.313
  0
TEXT
  8
DIMENSIONS
 10
-12.387912
 20
8.34375
 30
0.0
 40
2.0
 50
0.0
  1
20.688
  0
TEXT
  8
DIMENSIONS
 10
11.428967
 20
-4.815103
 30
0.0
 40
2.0
 50
0.0
  1
33.813
  0
ENDSEC
  0
EOF
