  0
SECTION
  2
ENTITIES
  0
LINE
  8
APS_GEOMETRY
 10
-1.125
 11
31.0625
 20
-1.625
 21
-1.625
  0
ARC
  8
APS_GEOMETRY
 10
31.0625
 20
-1.125
 40
0.5
 50
270.0
 51
0.0
  0
LINE
  8
APS_GEOMETRY
 10
31.5625
 11
31.5625
 20
-1.125
 21
18.375
  0
ARC
  8
APS_GEOMETRY
 10
31.0625
 20
18.375
 40
0.5
 50
0.0
 51
90.0
  0
LINE
  8
APS_GEOMETRY
 10
31.0625
 11
-1.125
 20
18.875
 21
18.875
  0
ARC
  8
APS_GEOMETRY
 10
-1.125
 20
18.375
 40
0.5
 50
90.0
 51
180.0
  0
LINE
  8
APS_GEOMETRY
 10
-1.625
 11
-1.625
 20
18.375
 21
-1.125
  0
ARC
  8
APS_GEOMETRY
 10
-1.125
 20
-1.125
 40
0.5
 50
180.0
 51
270.0
  0
LINE
  8
APS_GEOMETRY
 10
0.0
 11
0.0
 20
0.4375
 21
16.8125
  0
ARC
  8
APS_GEOMETRY
 10
0.5
 20
16.8125
 40
0.5
 50
90.0
 51
180.0
  0
LINE
  8
APS_GEOMETRY
 10
0.5
 11
29.4375
 20
17.3125
 21
17.3125
  0
ARC
  8
APS_GEOMETRY
 10
29.4375
 20
16.8125
 40
0.5
 50
0.0
 51
90.0
  0
LINE
  8
APS_GEOMETRY
 10
29.9375
 11
29.9375
 20
16.8125
 21
0.4375
  0
ARC
  8
APS_GEOMETRY
 10
29.4375
 20
0.4375
 40
0.5
 50
270.0
 51
0.0
  0
LINE
  8
APS_GEOMETRY
 10
29.4375
 11
0.5
 20
-0.0625
 21
-0.0625
  0
ARC
  8
APS_GEOMETRY
 10
0.5
 20
0.4375
 40
0.5
 50
180.0
 51
270.0
  0
LINE
  8
APS_GEOMETRY
 10
0.375
 11
0.375
 20
0.8125
 21
16.4375
  0
ARC
  8
APS_GEOMETRY
 10
0.875
 20
16.4375
 40
0.5
 50
90.0
 51
180.0
  0
LINE
  8
APS_GEOMETRY
 10
0.875
 11
29.0625
 20
16.9375
 21
16.9375
  0
ARC
  8
APS_GEOMETRY
 10
29.0625
 20
16.4375
 40
0.5
 50
0.0
 51
90.0
  0
LINE
  8
APS_GEOMETRY
 10
29.5625
 11
29.5625
 20
16.4375
 21
0.8125
  0
ARC
  8
APS_GEOMETRY
 10
29.0625
 20
0.8125
 40
0.5
 50
270.0
 51
0.0
  0
LINE
  8
APS_GEOMETRY
 10
29.0625
 11
0.875
 20
0.3125
 21
0.3125
  0
ARC
  8
APS_GEOMETRY
 10
0.875
 20
0.8125
 40
0.5
 50
180.0
 51
270.0
  0
LINE
  8
APS_GEOMETRY
 10
14.96875
 11
14.96875
 20
16.9375
 21
22.440715
  0
LINE
  8
APS_GEOMETRY
 10
29.9375
 11
37.556974
 20
8.625
 21
8.625
  0
LINE
  8
DIMENSIONS
 10
0.375
 11
10.098922
 20
8.395096
 21
8.395096
  0
LINE
  8
DIMENSIONS
 10
19.838578
 11
29.5625
 20
8.395096
 21
8.395096
  0
LINE
  8
DIMENSIONS
 10
2.375
 11
0.375
 20
8.061696
 21
8.395096
  0
LINE
  8
DIMENSIONS
 10
0.375
 11
2.375
 20
8.395096
 21
8.728496
  0
LINE
  8
DIMENSIONS
 10
2.375
 11
2.375
 20
8.728496
 21
8.061696
  0
LINE
  8
DIMENSIONS
 10
27.5625
 11
29.5625
 20
8.728496
 21
8.395096
  0
LINE
  8
DIMENSIONS
 10
29.5625
 11
27.5625
 20
8.395096
 21
8.061696
  0
LINE
  8
DIMENSIONS
 10
27.5625
 11
27.5625
 20
8.061696
 21
8.728496
  0
LINE
  8
DIMENSIONS
 10
0.0
 11
0.0
 20
9.625
 21
19.543102
  0
LINE
  8
DIMENSIONS
 10
29.9375
 11
29.9375
 20
9.625
 21
19.543102
  0
LINE
  8
DIMENSIONS
 10
0.0
 11
9.740807
 20
18.543102
 21
18.543102
  0
LINE
  8
DIMENSIONS
 10
20.196693
 11
29.9375
 20
18.543102
 21
18.543102
  0
LINE
  8
DIMENSIONS
 10
2.0
 11
0.0
 20
18.209702
 21
18.543102
  0
LINE
  8
DIMENSIONS
 10
0.0
 11
2.0
 20
18.543102
 21
18.876502
  0
LINE
  8
DIMENSIONS
 10
2.0
 11
2.0
 20
18.876502
 21
18.209702
  0
LINE
  8
DIMENSIONS
 10
27.9375
 11
29.9375
 20
18.876502
 21
18.543102
  0
LINE
  8
DIMENSIONS
 10
29.9375
 11
27.9375
 20
18.543102
 21
18.209702
  0
LINE
  8
DIMENSIONS
 10
27.9375
 11
27.9375
 20
18.209702
 21
18.876502
  0
LINE
  8
DIMENSIONS
 10
-1.625
 11
-1.625
 20
7.625
 21
-4.458108
  0
LINE
  8
DIMENSIONS
 10
31.5625
 11
31.5625
 20
7.625
 21
-4.458108
  0
LINE
  8
DIMENSIONS
 10
-1.625
 11
10.060472
 20
-3.458108
 21
-3.458108
  0
LINE
  8
DIMENSIONS
 10
19.877028
 11
31.5625
 20
-3.458108
 21
-3.458108
  0
LINE
  8
DIMENSIONS
 10
0.375
 11
-1.625
 20
-3.791508
 21
-3.458108
  0
LINE
  8
DIMENSIONS
 10
-1.625
 11
0.375
 20
-3.458108
 21
-3.124708
  0
LINE
  8
DIMENSIONS
 10
0.375
 11
0.375
 20
-3.124708
 21
-3.791508
  0
LINE
  8
DIMENSIONS
 10
29.5625
 11
31.5625
 20
-3.124708
 21
-3.458108
  0
LINE
  8
DIMENSIONS
 10
31.5625
 11
29.5625
 20
-3.458108
 21
-3.791508
  0
LINE
  8
DIMENSIONS
 10
29.5625
 11
29.5625
 20
-3.791508
 21
-3.124708
  0
LINE
  8
DIMENSIONS
 10
-2.125
 11
-7.491791
 20
18.875
 21
18.875
  0
LINE
  8
DIMENSIONS
 10
-2.125
 11
-7.491791
 20
-1.625
 21
-1.625
  0
LINE
  8
DIMENSIONS
 10
-6.491791
 11
-6.491791
 20
18.875
 21
10.131289
  0
LINE
  8
DIMENSIONS
 10
-6.491791
 11
-6.491791
 20
7.100606
 21
-1.625
  0
LINE
  8
DIMENSIONS
 10
-6.825191
 11
-6.491791
 20
16.875
 21
18.875
  0
LINE
  8
DIMENSIONS
 10
-6.491791
 11
-6.158391
 20
18.875
 21
16.875
  0
LINE
  8
DIMENSIONS
 10
-6.158391
 11
-6.825191
 20
16.875
 21
16.875
  0
LINE
  8
DIMENSIONS
 10
-6.158391
 11
-6.491791
 20
0.375
 21
-1.625
  0
LINE
  8
DIMENSIONS
 10
-6.491791
 11
-6.825191
 20
-1.625
 21
0.375
  0
LINE
  8
DIMENSIONS
 10
-6.825191
 11
-6.158391
 20
0.375
 21
0.375
  0
LINE
  8
DIMENSIONS
 10
30.4375
 11
36.43112
 20
17.3125
 21
17.3125
  0
LINE
  8
DIMENSIONS
 10
30.4375
 11
36.43112
 20
-0.0625
 21
-0.0625
  0
LINE
  8
DIMENSIONS
 10
35.43112
 11
35.43112
 20
17.3125
 21
14.143589
  0
LINE
  8
DIMENSIONS
 10
35.43112
 11
35.43112
 20
11.121069
 21
-0.0625
  0
LINE
  8
DIMENSIONS
 10
35.09772
 11
35.43112
 20
15.3125
 21
17.3125
  0
LINE
  8
DIMENSIONS
 10
35.43112
 11
35.76452
 20
17.3125
 21
15.3125
  0
LINE
  8
DIMENSIONS
 10
35.76452
 11
35.09772
 20
15.3125
 21
15.3125
  0
LINE
  8
DIMENSIONS
 10
35.76452
 11
35.43112
 20
1.9375
 21
-0.0625
  0
LINE
  8
DIMENSIONS
 10
35.43112
 11
35.09772
 20
-0.0625
 21
1.9375
  0
LINE
  8
DIMENSIONS
 10
35.09772
 11
35.76452
 20
1.9375
 21
1.9375
  0
LINE
  8
DIMENSIONS
 10
1.875
 11
7.214848
 20
16.9375
 21
16.9375
  0
LINE
  8
DIMENSIONS
 10
1.875
 11
7.214848
 20
0.3125
 21
0.3125
  0
LINE
  8
DIMENSIONS
 10
6.214848
 11
6.214848
 20
16.9375
 21
13.212126
  0
LINE
  8
DIMENSIONS
 10
6.214848
 11
6.214848
 20
10.18455
 21
0.3125
  0
LINE
  8
DIMENSIONS
 10
5.881448
 11
6.214848
 20
14.9375
 21
16.9375
  0
LINE
  8
DIMENSIONS
 10
6.214848
 11
6.548248
 20
16.9375
 21
14.9375
  0
LINE
  8
DIMENSIONS
 10
6.548248
 11
5.881448
 20
14.9375
 21
14.9375
  0
LINE
  8
DIMENSIONS
 10
6.548248
 11
6.214848
 20
2.3125
 21
0.3125
  0
LINE
  8
DIMENSIONS
 10
6.214848
 11
5.881448
 20
0.3125
 21
2.3125
  0
LINE
  8
DIMENSIONS
 10
5.881448
 11
6.548248
 20
2.3125
 21
2.3125
  0
TEXT
  8
TEXT
 10
-4.194164
 20
22.372733
 30
0.0
 40
4.0
 50
0.0
  1
3/16'' OVERHANG
  0
TEXT
  8
TEXT
 10
37.822319
 20
6.426719
 30
0.0
 40
4.0
 50
0.0
  1
.25''REVEAL
  0
TEXT
  8
DIMENSIONS
 10
10.598923
 20
7.395096
 30
0.0
 40
2.0
 50
0.0
  1
29.188
  0
TEXT
  8
DIMENSIONS
 10
10.240808
 20
17.543102
 30
0.0
 40
2.0
 50
0.0
  1
29.938
  0
TEXT
  8
DIMENSIONS
 10
10.506884
 20
-4.458108
 30
0.0
 40
2.0
 50
0.0
  1
33.188
  0
TEXT
  8
DIMENSIONS
 10
-9.467095
 20
7.625
 30
0.0
 40
2.0
 50
0.0
  1
20.5
  0
TEXT
  8
DIMENSIONS
 10
30.99872
 20
11.637295
 30
0.0
 40
2.0
 50
0.0
  1
17.375
  0
TEXT
  8
DIMENSIONS
 10
1.867188
 20
10.705837
 30
0.0
 40
2.0
 50
0.0
  1
16.625
  0
TEXT
  8
TEXT
 10
-3.39035
 20
29.76582
 30
0.0
 40
4.0
 50
0.0
  1
AS-617 7-5-18
  0
ENDSEC
  0
EOF
