  0
SECTION
  2
ENTITIES
  0
LINE
  8
APS_GEOMETRY
 10
1.098159
 11
1.098159
 20
14.998158
 21
5.393155
  0
ARC
  8
APS_GEOMETRY
 10
4.848159
 20
5.393155
 40
3.75
 50
180.0
 51
270.0
  0
LINE
  8
APS_GEOMETRY
 10
4.848159
 11
28.045842
 20
1.643155
 21
1.643155
  0
ARC
  8
APS_GEOMETRY
 10
28.045842
 20
5.393155
 40
3.75
 50
270.0
 51
0.000246
  0
LINE
  8
APS_GEOMETRY
 10
31.795842
 11
31.795801
 20
5.393171
 21
14.998197
  0
ARC
  8
APS_GEOMETRY
 10
28.045801
 20
14.998181
 40
3.75
 50
0.000246
 51
90.000058
  0
LINE
  8
APS_GEOMETRY
 10
28.045797
 11
4.848156
 20
18.748181
 21
18.748158
  0
ARC
  8
APS_GEOMETRY
 10
4.848159
 20
14.998158
 40
3.75
 50
90.000058
 51
180.0
  0
LINE
  8
APS_GEOMETRY
 10
0.285659
 11
0.285659
 20
15.123158
 21
5.393155
  0
ARC
  8
APS_GEOMETRY
 10
4.848159
 20
5.393155
 40
4.5625
 50
180.0
 51
270.0
  0
LINE
  8
APS_GEOMETRY
 10
4.848159
 11
28.045842
 20
0.830655
 21
0.830655
  0
ARC
  8
APS_GEOMETRY
 10
28.045842
 20
5.393155
 40
4.5625
 50
270.0
 51
0.000246
  0
LINE
  8
APS_GEOMETRY
 10
32.608342
 11
32.608301
 20
5.393174
 21
14.998201
  0
ARC
  8
APS_GEOMETRY
 10
28.045801
 20
14.998181
 40
4.5625
 50
0.000246
 51
90.000058
  0
LINE
  8
APS_GEOMETRY
 10
28.045796
 11
4.723155
 20
19.560681
 21
19.560658
  0
ARC
  8
APS_GEOMETRY
 10
4.723159
 20
15.123158
 40
4.4375
 50
90.000058
 51
180.0
  0
CIRCLE
  8
APS_GEOMETRY
 10
6.165257
 20
19.810658
 40
0.125
  0
CIRCLE
  8
APS_GEOMETRY
 10
0.035659
 20
13.594529
 40
0.125
  0
CIRCLE
  8
APS_GEOMETRY
 10
1.445208
 20
1.990203
 40
0.125
  0
CIRCLE
  8
APS_GEOMETRY
 10
31.448801
 20
1.99021
 40
0.125
  0
CIRCLE
  8
APS_GEOMETRY
 10
16.447001
 20
0.580655
 40
0.125
  0
CIRCLE
  8
APS_GEOMETRY
 10
26.728692
 20
19.810687
 40
0.125
  0
CIRCLE
  8
APS_GEOMETRY
 10
32.858308
 20
13.594576
 40
0.125
  0
LINE
  8
APS_GEOMETRY
 10
16.446976
 11
16.447001
 20
18.74817
 21
1.643155
  0
LINE
  8
APS_GEOMETRY
 10
18.98046
 11
18.98046
 20
2.574402
 21
4.787163
  0
ARC
  8
APS_GEOMETRY
 10
19.296867
 20
4.787163
 40
0.316406
 50
90.0
 51
180.0
  0
LINE
  8
APS_GEOMETRY
 10
19.296867
 11
19.577822
 20
5.103569
 21
5.103569
  0
LINE
  8
APS_GEOMETRY
 10
19.577822
 11
22.212174
 20
5.103569
 21
5.103569
  0
LINE
  8
APS_GEOMETRY
 10
19.296867
 11
19.296813
 20
5.103569
 21
5.103534
  0
LINE
  8
APS_GEOMETRY
 10
19.296813
 11
19.296813
 20
5.103534
 21
5.736382
  0
ARC
  8
APS_GEOMETRY
 10
19.613219
 20
5.736382
 40
0.316406
 50
90.0
 51
180.0
  0
LINE
  8
APS_GEOMETRY
 10
19.613219
 11
22.212174
 20
6.052788
 21
6.052788
  0
LINE
  8
APS_GEOMETRY
 10
22.212174
 11
22.212174
 20
6.052788
 21
5.103569
  0
LINE
  8
DIMENSIONS
 10
1.098159
 11
1.098159
 20
9.195656
 21
-2.775457
  0
LINE
  8
DIMENSIONS
 10
31.795821
 11
31.795821
 20
9.195684
 21
-2.775457
  0
LINE
  8
DIMENSIONS
 10
1.098159
 11
11.129749
 20
-1.775457
 21
-1.775457
  0
LINE
  8
DIMENSIONS
 10
21.764232
 11
31.795821
 20
-1.775457
 21
-1.775457
  0
LINE
  8
DIMENSIONS
 10
3.098159
 11
1.098159
 20
-2.108857
 21
-1.775457
  0
LINE
  8
DIMENSIONS
 10
1.098159
 11
3.098159
 20
-1.775457
 21
-1.442057
  0
LINE
  8
DIMENSIONS
 10
3.098159
 11
3.098159
 20
-1.442057
 21
-2.108857
  0
LINE
  8
DIMENSIONS
 10
29.795821
 11
31.795821
 20
-1.442057
 21
-1.775457
  0
LINE
  8
DIMENSIONS
 10
31.795821
 11
29.795821
 20
-1.775457
 21
-2.108857
  0
LINE
  8
DIMENSIONS
 10
29.795821
 11
29.795821
 20
-2.108857
 21
-1.442057
  0
LINE
  8
DIMENSIONS
 10
15.446976
 11
-5.859003
 20
18.74817
 21
18.74817
  0
LINE
  8
DIMENSIONS
 10
15.447001
 11
-5.859003
 20
1.643155
 21
1.643155
  0
LINE
  8
DIMENSIONS
 10
-4.859003
 11
-4.859003
 20
18.74817
 21
11.696713
  0
LINE
  8
DIMENSIONS
 10
-4.859003
 11
-4.859003
 20
8.671268
 21
1.643155
  0
LINE
  8
DIMENSIONS
 10
-5.192403
 11
-4.859003
 20
16.74817
 21
18.74817
  0
LINE
  8
DIMENSIONS
 10
-4.859003
 11
-4.525603
 20
18.74817
 21
16.74817
  0
LINE
  8
DIMENSIONS
 10
-4.525603
 11
-5.192403
 20
16.74817
 21
16.74817
  0
LINE
  8
DIMENSIONS
 10
-4.525603
 11
-4.859003
 20
3.643155
 21
1.643155
  0
LINE
  8
DIMENSIONS
 10
-4.859003
 11
-5.192403
 20
1.643155
 21
3.643155
  0
LINE
  8
DIMENSIONS
 10
-5.192403
 11
-4.525603
 20
3.643155
 21
3.643155
  0
TEXT
  8
TEXT
 10
17.870762
 20
7.606799
 30
0.0
 40
0.632813
 50
0.0
  1
OTE: 
  0
TEXT
  8
TEXT
 10
17.986777
 20
6.65758
 30
0.0
 40
0.632813
 50
0.0
  1
                   
  0
TEXT
  8
TEXT
 10
19.876649
 20
7.606799
 30
0.0
 40
0.632813
 50
0.0
  1
TEMPLATE IS .250
  0
TEXT
  8
TEXT
 10
19.876649
 20
6.65758
 30
0.0
 40
0.632813
 50
0.0
  1
-SINK RIM
  0
TEXT
  8
TEXT
 10
17.385606
 20
6.65758
 30
0.0
 40
0.632813
 50
0.0
  1
 
  0
TEXT
  8
TEXT
 10
17.385606
 20
7.606799
 30
0.0
 40
0.632813
 50
0.0
  1
N
  0
TEXT
  8
TEXT
 10
16.366716
 20
26.617546
 30
0.0
 40
3.0
 50
0.0
  1
AS 114
  0
TEXT
  8
TEXT
 10
16.366716
 20
22.117546
 30
0.0
 40
3.0
 50
0.0
  1
UM STAINLESS
  0
TEXT
  8
DIMENSIONS
 10
11.57616
 20
-2.775457
 30
0.0
 40
2.0
 50
0.0
  1
30.698
  0
TEXT
  8
DIMENSIONS
 10
-8.976114
 20
9.195662
 30
0.0
 40
2.0
 50
0.0
  1
17.105
  0
ENDSEC
  0
EOF
