  0
SECTION
  2
ENTITIES
  0
LINE
  8
APS_GEOMETRY
 10
6.55282
 11
6.552777
 20
-18.263106
 21
-18.263134
  0
LINE
  8
APS_GEOMETRY
 10
6.552777
 11
6.552777
 20
-18.263134
 21
-17.763106
  0
ARC
  8
APS_GEOMETRY
 10
6.802777
 20
-17.763106
 40
0.25
 50
90.0
 51
180.0
  0
LINE
  8
APS_GEOMETRY
 10
6.802777
 11
8.856273
 20
-17.513106
 21
-17.513106
  0
LINE
  8
APS_GEOMETRY
 10
8.856273
 11
8.856273
 20
-17.513106
 21
-18.263106
  0
LINE
  8
APS_GEOMETRY
 10
6.80282
 11
6.80282
 20
-20.26146
 21
-18.513106
  0
ARC
  8
APS_GEOMETRY
 10
7.05282
 20
-18.513106
 40
0.25
 50
90.0
 51
180.0
  0
LINE
  8
APS_GEOMETRY
 10
6.552777
 11
8.856273
 20
-18.263106
 21
-18.263106
  0
LINE
  8
APS_GEOMETRY
 10
-3.010838
 11
11.239187
 20
-21.152213
 21
-21.152213
  0
ARC
  8
APS_GEOMETRY
 10
11.239187
 20
-20.402213
 40
0.75
 50
270.0
 51
0.0
  0
LINE
  8
APS_GEOMETRY
 10
11.989187
 11
11.989187
 20
-20.402213
 21
-11.402191
  0
ARC
  8
APS_GEOMETRY
 10
11.239187
 20
-11.402191
 40
0.75
 50
0.0
 51
90.0
  0
LINE
  8
APS_GEOMETRY
 10
11.239187
 11
-3.010838
 20
-10.652191
 21
-10.652191
  0
ARC
  8
APS_GEOMETRY
 10
-3.010838
 20
-11.402191
 40
0.75
 50
90.0
 51
180.0
  0
LINE
  8
APS_GEOMETRY
 10
-3.760838
 11
-3.760838
 20
-11.402191
 21
-20.402213
  0
ARC
  8
APS_GEOMETRY
 10
-3.010838
 20
-20.402213
 40
0.75
 50
180.0
 51
270.0
  0
LINE
  8
APS_GEOMETRY
 10
4.114175
 11
4.114175
 20
-10.652191
 21
-21.152213
  0
LINE
  8
DIMENSIONS
 10
-3.760838
 11
-3.760838
 20
-10.402191
 21
-8.279694
  0
LINE
  8
DIMENSIONS
 10
11.989187
 11
11.989187
 20
-10.402191
 21
-8.279694
  0
LINE
  8
DIMENSIONS
 10
-3.760838
 11
-0.882385
 20
-9.279694
 21
-9.279694
  0
LINE
  8
DIMENSIONS
 10
9.110734
 11
11.989187
 20
-9.279694
 21
-9.279694
  0
LINE
  8
DIMENSIONS
 10
-1.760838
 11
-3.760838
 20
-9.613094
 21
-9.279694
  0
LINE
  8
DIMENSIONS
 10
-3.760838
 11
-1.760838
 20
-9.279694
 21
-8.946294
  0
LINE
  8
DIMENSIONS
 10
-1.760838
 11
-1.760838
 20
-8.946294
 21
-9.613094
  0
LINE
  8
DIMENSIONS
 10
9.989187
 11
11.989187
 20
-8.946294
 21
-9.279694
  0
LINE
  8
DIMENSIONS
 10
11.989187
 11
9.989187
 20
-9.279694
 21
-9.613094
  0
LINE
  8
DIMENSIONS
 10
9.989187
 11
9.989187
 20
-9.613094
 21
-8.946294
  0
LINE
  8
DIMENSIONS
 10
3.114175
 11
-9.966877
 20
-10.652191
 21
-10.652191
  0
LINE
  8
DIMENSIONS
 10
3.114175
 11
-9.966877
 20
-21.152213
 21
-21.152213
  0
LINE
  8
DIMENSIONS
 10
-8.966877
 11
-8.966877
 20
-10.652191
 21
-14.401446
  0
LINE
  8
DIMENSIONS
 10
-8.966877
 11
-8.966877
 20
-17.426596
 21
-21.152213
  0
LINE
  8
DIMENSIONS
 10
-9.300277
 11
-8.966877
 20
-12.652191
 21
-10.652191
  0
LINE
  8
DIMENSIONS
 10
-8.966877
 11
-8.633477
 20
-10.652191
 21
-12.652191
  0
LINE
  8
DIMENSIONS
 10
-8.633477
 11
-9.300277
 20
-12.652191
 21
-12.652191
  0
LINE
  8
DIMENSIONS
 10
-8.633477
 11
-8.966877
 20
-19.152213
 21
-21.152213
  0
LINE
  8
DIMENSIONS
 10
-8.966877
 11
-9.300277
 20
-21.152213
 21
-19.152213
  0
LINE
  8
DIMENSIONS
 10
-9.300277
 11
-8.633477
 20
-19.152213
 21
-19.152213
  0
TEXT
  8
TEXT
 10
5.042687
 20
-16.285246
 30
0.0
 40
0.5
 50
0.0
  1
N
  0
TEXT
  8
TEXT
 10
5.042687
 20
-17.035246
 30
0.0
 40
0.5
 50
0.0
  1
 
  0
TEXT
  8
TEXT
 10
5.583653
 20
-17.035246
 30
0.0
 40
0.5
 50
0.0
  1
.250" +SINK RIM
  0
TEXT
  8
TEXT
 10
7.010919
 20
-16.285246
 30
0.0
 40
0.5
 50
0.0
  1
TEMPLATE IS
  0
TEXT
  8
TEXT
 10
11.544598
 20
-17.061827
 30
0.0
 40
0.5
 50
0.0
  1
 
  0
TEXT
  8
TEXT
 10
5.517687
 20
-17.035246
 30
0.0
 40
0.5
 50
0.0
  1
  
  0
TEXT
  8
TEXT
 10
5.040422
 20
-17.035246
 30
0.0
 40
0.5
 50
0.0
  1
              
  0
TEXT
  8
TEXT
 10
11.016435
 20
-17.035246
 30
0.0
 40
0.5
 50
0.0
  1
 
  0
TEXT
  8
TEXT
 10
5.426021
 20
-16.285246
 30
0.0
 40
0.5
 50
0.0
  1
OTE: 
  0
TEXT
  8
TEXT
 10
-2.637773
 20
-12.480835
 30
0.0
 40
1.0
 50
0.0
  1
AS 222
  0
TEXT
  8
TEXT
 10
-2.637773
 20
-13.980835
 30
0.0
 40
1.0
 50
0.0
  1
SQUARE
  0
TEXT
  8
DIMENSIONS
 10
-0.382385
 20
-10.279694
 30
0.0
 40
2.0
 50
0.0
  1
15.750
  0
TEXT
  8
DIMENSIONS
 10
-13.584309
 20
-16.902202
 30
0.0
 40
2.0
 50
0.0
  1
10.500
  0
ENDSEC
  0
EOF
