  0
SECTION
  2
ENTITIES
  0
ARC
  8
APS_GEOMETRY
 10
8.040117
 20
14.499023
 40
4.838868
 50
0.0
 51
27.373628
  0
ARC
  8
APS_GEOMETRY
 10
6.756468
 20
13.834393
 40
6.284374
 50
27.373628
 51
51.340192
  0
ARC
  8
APS_GEOMETRY
 10
5.922451
 20
12.791872
 40
7.619452
 50
51.340192
 51
71.666309
  0
ARC
  8
APS_GEOMETRY
 10
5.378984
 20
11.151815
 40
9.347208
 50
71.666309
 51
90.0
  0
ARC
  8
APS_GEOMETRY
 10
5.378984
 20
11.151815
 40
9.347208
 50
90.0
 51
108.333691
  0
ARC
  8
APS_GEOMETRY
 10
4.835517
 20
12.791872
 40
7.619452
 50
108.333691
 51
128.659808
  0
ARC
  8
APS_GEOMETRY
 10
4.001501
 20
13.834393
 40
6.284374
 50
128.659808
 51
152.626372
  0
ARC
  8
APS_GEOMETRY
 10
2.717852
 20
14.499023
 40
4.838868
 50
152.626372
 51
180.0
  0
ARC
  8
APS_GEOMETRY
 10
2.717852
 20
14.499023
 40
4.838868
 50
180.0
 51
207.373628
  0
ARC
  8
APS_GEOMETRY
 10
4.001501
 20
15.163654
 40
6.284374
 50
207.373628
 51
231.340192
  0
ARC
  8
APS_GEOMETRY
 10
4.835517
 20
16.206175
 40
7.619452
 50
231.340192
 51
251.666309
  0
ARC
  8
APS_GEOMETRY
 10
5.378984
 20
17.846232
 40
9.347208
 50
251.666309
 51
270.0
  0
ARC
  8
APS_GEOMETRY
 10
5.378984
 20
17.846232
 40
9.347208
 50
270.0
 51
288.333691
  0
ARC
  8
APS_GEOMETRY
 10
5.922451
 20
16.206175
 40
7.619452
 50
288.333691
 51
308.659808
  0
ARC
  8
APS_GEOMETRY
 10
6.756468
 20
15.163654
 40
6.284374
 50
308.659808
 51
332.626372
  0
ARC
  8
APS_GEOMETRY
 10
8.040117
 20
14.499023
 40
4.838868
 50
332.626372
 51
0.0
  0
LINE
  8
APS_GEOMETRY
 10
5.378984
 11
5.378984
 20
20.499023
 21
8.499023
  0
LINE
  8
APS_GEOMETRY
 10
-2.121016
 11
12.878984
 20
14.499023
 21
14.499023
  0
LINE
  8
DIMENSIONS
 10
-2.121016
 11
-2.121016
 20
14.249023
 21
7.408514
  0
LINE
  8
DIMENSIONS
 10
12.878984
 11
12.878984
 20
14.249023
 21
7.408514
  0
LINE
  8
DIMENSIONS
 10
-2.121016
 11
9.129861
 20
7.658514
 21
7.658514
  0
LINE
  8
DIMENSIONS
 10
12.179957
 11
12.878984
 20
7.658514
 21
7.658514
  0
LINE
  8
DIMENSIONS
 10
-1.621016
 11
-2.121016
 20
7.575164
 21
7.658514
  0
LINE
  8
DIMENSIONS
 10
-2.121016
 11
-1.621016
 20
7.658514
 21
7.741864
  0
LINE
  8
DIMENSIONS
 10
-1.621016
 11
-1.621016
 20
7.741864
 21
7.575164
  0
LINE
  8
DIMENSIONS
 10
12.378984
 11
12.878984
 20
7.741864
 21
7.658514
  0
LINE
  8
DIMENSIONS
 10
12.878984
 11
12.378984
 20
7.658514
 21
7.575164
  0
LINE
  8
DIMENSIONS
 10
12.378984
 11
12.378984
 20
7.575164
 21
7.741864
  0
LINE
  8
DIMENSIONS
 10
5.628984
 11
15.226363
 20
20.499023
 21
20.499023
  0
LINE
  8
DIMENSIONS
 10
5.628984
 11
15.226363
 20
8.499023
 21
8.499023
  0
LINE
  8
DIMENSIONS
 10
14.976363
 11
14.976363
 20
20.499023
 21
9.782982
  0
LINE
  8
DIMENSIONS
 10
14.976363
 11
14.976363
 20
9.025312
 21
8.499023
  0
LINE
  8
DIMENSIONS
 10
14.893013
 11
14.976363
 20
19.999023
 21
20.499023
  0
LINE
  8
DIMENSIONS
 10
14.976363
 11
15.059713
 20
20.499023
 21
19.999023
  0
LINE
  8
DIMENSIONS
 10
15.059713
 11
14.893013
 20
19.999023
 21
19.999023
  0
LINE
  8
DIMENSIONS
 10
15.059713
 11
14.976363
 20
8.999023
 21
8.499023
  0
LINE
  8
DIMENSIONS
 10
14.976363
 11
14.893013
 20
8.499023
 21
8.999023
  0
LINE
  8
DIMENSIONS
 10
14.893013
 11
15.059713
 20
8.999023
 21
8.999023
  0
LINE
  8
APS_GEOMETRY
 10
5.865077
 11
5.865039
 20
11.845776
 21
11.845751
  0
LINE
  8
APS_GEOMETRY
 10
5.865039
 11
5.865039
 20
11.845751
 21
12.295776
  0
ARC
  8
APS_GEOMETRY
 10
6.090039
 20
12.295776
 40
0.225
 50
90.0
 51
180.0
  0
LINE
  8
APS_GEOMETRY
 10
6.090039
 11
7.938184
 20
12.520776
 21
12.520776
  0
LINE
  8
APS_GEOMETRY
 10
7.938184
 11
7.938184
 20
12.520776
 21
11.845776
  0
LINE
  8
APS_GEOMETRY
 10
6.090077
 11
6.090077
 20
10.047257
 21
11.620776
  0
ARC
  8
APS_GEOMETRY
 10
6.315077
 20
11.620776
 40
0.225
 50
90.0
 51
180.0
  0
LINE
  8
APS_GEOMETRY
 10
5.865039
 11
7.938184
 20
11.845776
 21
11.845776
  0
TEXT
  8
DIMENSIONS
 10
9.254861
 20
7.408514
 30
0.0
 40
0.5
 50
0.0
  1
15.0000
  0
TEXT
  8
TEXT
 10
12.797015
 20
12.321816
 30
0.0
 40
0.5
 50
0.0
  1
    
  0
TEXT
  8
DIMENSIONS
 10
13.590255
 20
9.15641
 30
0.0
 40
0.5
 50
0.0
  1
12.000
  0
TEXT
  8
DIMENSIONS
 10
15.969292
 20
9.15641
 30
0.0
 40
0.5
 50
0.0
  1
0
  0
TEXT
  8
TEXT
 10
6.231364
 20
13.480853
 30
0.0
 40
0.4
 50
0.0
  1
OTE:
  0
TEXT
  8
TEXT
 10
7.131982
 20
13.480853
 30
0.0
 40
0.4
 50
0.0
  1
 
  0
TEXT
  8
TEXT
 10
6.084766
 20
12.730853
 30
0.0
 40
0.4
 50
0.0
  1
                
  0
TEXT
  8
TEXT
 10
12.730083
 20
12.730853
 30
0.0
 40
0.425
 50
0.0
  1
   
  0
TEXT
  8
TEXT
 10
7.577998
 20
13.480853
 30
0.0
 40
0.4
 50
0.0
  1
TEMPLATE IS.250
  0
TEXT
  8
TEXT
 10
7.577998
 20
12.880853
 30
0.0
 40
0.4
 50
0.0
  1
+SINK RIM
  0
TEXT
  8
TEXT
 10
5.609766
 20
12.730853
 30
0.0
 40
0.4
 50
0.0
  1
 
  0
TEXT
  8
TEXT
 10
5.848031
 20
13.480853
 30
0.0
 40
0.4
 50
0.0
  1
N
  0
TEXT
  8
TEXT
 10
-1.112027
 20
15.621616
 30
0.0
 40
1.3
 50
0.0
  1
AS202
  0
TEXT
  8
TEXT
 10
-1.112027
 20
13.671616
 30
0.0
 40
1.3
 50
0.0
  1

  0
ENDSEC
  0
EOF
