  0
SECTION
  2
ENTITIES
  0
ARC
  8
APS_GEOMETRY
 10
50.912454
 20
88.495754
 40
5.524931
 50
0.0
 51
26.774937
  0
ARC
  8
APS_GEOMETRY
 10
49.612121
 20
87.839622
 40
6.981425
 50
26.774937
 51
50.617581
  0
ARC
  8
APS_GEOMETRY
 10
48.768559
 20
86.81201
 40
8.31093
 50
50.617581
 51
71.220628
  0
ARC
  8
APS_GEOMETRY
 10
48.219385
 20
85.196918
 40
10.016837
 50
71.220628
 51
90.0
  0
ARC
  8
APS_GEOMETRY
 10
48.219385
 20
85.196918
 40
10.016837
 50
90.0
 51
108.779372
  0
ARC
  8
APS_GEOMETRY
 10
47.670211
 20
86.81201
 40
8.31093
 50
108.779372
 51
129.382419
  0
ARC
  8
APS_GEOMETRY
 10
46.826649
 20
87.839622
 40
6.981425
 50
129.382419
 51
153.225063
  0
ARC
  8
APS_GEOMETRY
 10
45.526316
 20
88.495754
 40
5.524931
 50
153.225063
 51
180.0
  0
ARC
  8
APS_GEOMETRY
 10
45.526316
 20
88.495754
 40
5.524931
 50
180.0
 51
206.774937
  0
ARC
  8
APS_GEOMETRY
 10
46.826649
 20
89.151886
 40
6.981425
 50
206.774937
 51
230.617581
  0
ARC
  8
APS_GEOMETRY
 10
47.670211
 20
90.179498
 40
8.31093
 50
230.617581
 51
251.220628
  0
ARC
  8
APS_GEOMETRY
 10
48.219385
 20
91.794591
 40
10.016837
 50
251.220628
 51
270.0
  0
ARC
  8
APS_GEOMETRY
 10
48.219385
 20
91.794591
 40
10.016837
 50
270.0
 51
288.779372
  0
ARC
  8
APS_GEOMETRY
 10
48.768559
 20
90.179498
 40
8.31093
 50
288.779372
 51
309.382419
  0
ARC
  8
APS_GEOMETRY
 10
49.612121
 20
89.151886
 40
6.981425
 50
309.382419
 51
333.225063
  0
ARC
  8
APS_GEOMETRY
 10
50.912454
 20
88.495754
 40
5.524931
 50
333.225063
 51
0.0
  0
ARC
  8
APS_GEOMETRY
 10
50.912454
 20
88.495754
 40
6.774931
 50
0.0
 51
26.774937
  0
ARC
  8
APS_GEOMETRY
 10
49.612121
 20
87.839622
 40
8.231425
 50
26.774937
 51
50.617581
  0
ARC
  8
APS_GEOMETRY
 10
48.768559
 20
86.81201
 40
9.56093
 50
50.617581
 51
71.220628
  0
ARC
  8
APS_GEOMETRY
 10
48.219385
 20
85.196918
 40
11.266837
 50
71.220628
 51
90.0
  0
ARC
  8
APS_GEOMETRY
 10
48.219385
 20
85.196918
 40
11.266837
 50
90.0
 51
108.779372
  0
ARC
  8
APS_GEOMETRY
 10
47.670211
 20
86.81201
 40
9.56093
 50
108.779372
 51
129.382419
  0
ARC
  8
APS_GEOMETRY
 10
46.826649
 20
87.839622
 40
8.231425
 50
129.382419
 51
153.225063
  0
ARC
  8
APS_GEOMETRY
 10
45.526316
 20
88.495754
 40
6.774931
 50
153.225063
 51
180.0
  0
ARC
  8
APS_GEOMETRY
 10
45.526316
 20
88.495754
 40
6.774931
 50
180.0
 51
206.774937
  0
ARC
  8
APS_GEOMETRY
 10
46.826649
 20
89.151886
 40
8.231425
 50
206.774937
 51
230.617581
  0
ARC
  8
APS_GEOMETRY
 10
47.670211
 20
90.179498
 40
9.56093
 50
230.617581
 51
251.220628
  0
ARC
  8
APS_GEOMETRY
 10
48.219385
 20
91.794591
 40
11.266837
 50
251.220628
 51
270.0
  0
ARC
  8
APS_GEOMETRY
 10
48.219385
 20
91.794591
 40
11.266837
 50
270.0
 51
288.779372
  0
ARC
  8
APS_GEOMETRY
 10
48.768559
 20
90.179498
 40
9.56093
 50
288.779372
 51
309.382419
  0
ARC
  8
APS_GEOMETRY
 10
49.612121
 20
89.151886
 40
8.231425
 50
309.382419
 51
333.225063
  0
ARC
  8
APS_GEOMETRY
 10
50.912454
 20
88.495754
 40
6.774931
 50
333.225063
 51
0.0
  0
CIRCLE
  8
APS_GEOMETRY
 10
39.816905
 20
93.454735
 40
0.125
  0
LINE
  8
APS_GEOMETRY
 10
48.219385
 11
48.219385
 20
81.777754
 21
95.213754
  0
CIRCLE
  8
APS_GEOMETRY
 10
56.621865
 20
93.454735
 40
0.125
  0
CIRCLE
  8
APS_GEOMETRY
 10
55.310776
 20
82.209888
 40
0.125
  0
CIRCLE
  8
APS_GEOMETRY
 10
41.127994
 20
82.209888
 40
0.125
  0
LINE
  8
DIMENSIONS
 10
37.816905
 11
29.040796
 20
93.454735
 21
93.454735
  0
LINE
  8
DIMENSIONS
 10
39.127994
 11
29.040796
 20
82.209888
 21
82.209888
  0
LINE
  8
DIMENSIONS
 10
31.040796
 11
31.040796
 20
93.454735
 21
90.84489
  0
LINE
  8
DIMENSIONS
 10
31.040796
 11
31.040796
 20
84.799859
 21
82.209888
  0
LINE
  8
DIMENSIONS
 10
30.373996
 11
31.040796
 20
89.454735
 21
93.454735
  0
LINE
  8
DIMENSIONS
 10
31.040796
 11
31.707596
 20
93.454735
 21
89.454735
  0
LINE
  8
DIMENSIONS
 10
31.707596
 11
30.373996
 20
89.454735
 21
89.454735
  0
LINE
  8
DIMENSIONS
 10
31.707596
 11
31.040796
 20
86.209888
 21
82.209888
  0
LINE
  8
DIMENSIONS
 10
31.040796
 11
30.373996
 20
82.209888
 21
86.209888
  0
LINE
  8
DIMENSIONS
 10
30.373996
 11
31.707596
 20
86.209888
 21
86.209888
  0
LINE
  8
DIMENSIONS
 10
39.816905
 11
39.816905
 20
92.787935
 21
94.121535
  0
LINE
  8
DIMENSIONS
 10
39.150105
 11
40.483705
 20
93.454735
 21
93.454735
  0
LINE
  8
DIMENSIONS
 10
41.127994
 11
41.127994
 20
81.543088
 21
82.876688
  0
LINE
  8
DIMENSIONS
 10
40.461194
 11
41.794794
 20
82.209888
 21
82.209888
  0
LINE
  8
DIMENSIONS
 10
39.816905
 11
39.816905
 20
95.454735
 21
101.630285
  0
LINE
  8
DIMENSIONS
 10
56.621865
 11
56.621865
 20
95.454735
 21
101.630285
  0
LINE
  8
DIMENSIONS
 10
39.816905
 11
60.608045
 20
99.630285
 21
99.630285
  0
LINE
  8
DIMENSIONS
 10
43.816905
 11
39.816905
 20
98.963485
 21
99.630285
  0
LINE
  8
DIMENSIONS
 10
39.816905
 11
43.816905
 20
99.630285
 21
100.297085
  0
LINE
  8
DIMENSIONS
 10
43.816905
 11
43.816905
 20
100.297085
 21
98.963485
  0
LINE
  8
DIMENSIONS
 10
52.621865
 11
56.621865
 20
100.297085
 21
99.630285
  0
LINE
  8
DIMENSIONS
 10
56.621865
 11
52.621865
 20
99.630285
 21
98.963485
  0
LINE
  8
DIMENSIONS
 10
52.621865
 11
52.621865
 20
98.963485
 21
100.297085
  0
LINE
  8
DIMENSIONS
 10
39.816905
 11
39.816905
 20
92.787935
 21
94.121535
  0
LINE
  8
DIMENSIONS
 10
39.150105
 11
40.483705
 20
93.454735
 21
93.454735
  0
LINE
  8
DIMENSIONS
 10
56.621865
 11
56.621865
 20
92.787935
 21
94.121535
  0
LINE
  8
DIMENSIONS
 10
55.955065
 11
57.288665
 20
93.454735
 21
93.454735
  0
LINE
  8
DIMENSIONS
 10
40.001385
 11
60.649193
 20
89.994329
 21
89.994329
  0
LINE
  8
DIMENSIONS
 10
44.001385
 11
40.001385
 20
89.327529
 21
89.994329
  0
LINE
  8
DIMENSIONS
 10
40.001385
 11
44.001385
 20
89.994329
 21
90.661129
  0
LINE
  8
DIMENSIONS
 10
44.001385
 11
44.001385
 20
90.661129
 21
89.327529
  0
LINE
  8
DIMENSIONS
 10
52.437385
 11
56.437385
 20
90.661129
 21
89.994329
  0
LINE
  8
DIMENSIONS
 10
56.437385
 11
52.437385
 20
89.994329
 21
89.327529
  0
LINE
  8
DIMENSIONS
 10
52.437385
 11
52.437385
 20
89.327529
 21
90.661129
  0
LINE
  8
DIMENSIONS
 10
50.219385
 11
66.818004
 20
81.777754
 21
81.777754
  0
LINE
  8
DIMENSIONS
 10
50.219385
 11
66.818004
 20
95.213754
 21
95.213754
  0
LINE
  8
DIMENSIONS
 10
64.818004
 11
64.818004
 20
95.213754
 21
76.866868
  0
LINE
  8
DIMENSIONS
 10
64.818004
 11
56.307574
 20
76.866868
 21
76.866868
  0
LINE
  8
DIMENSIONS
 10
65.484804
 11
64.818004
 20
85.777754
 21
81.777754
  0
LINE
  8
DIMENSIONS
 10
64.818004
 11
64.151204
 20
81.777754
 21
85.777754
  0
LINE
  8
DIMENSIONS
 10
64.151204
 11
65.484804
 20
85.777754
 21
85.777754
  0
LINE
  8
DIMENSIONS
 10
64.151204
 11
64.818004
 20
91.213754
 21
95.213754
  0
LINE
  8
DIMENSIONS
 10
64.818004
 11
65.484804
 20
95.213754
 21
91.213754
  0
LINE
  8
DIMENSIONS
 10
65.484804
 11
64.151204
 20
91.213754
 21
91.213754
  0
TEXT
  8
TEXT
 10
43.569719
 20
104.707811
 30
0.0
 40
4.0
 50
0.0
  1
AS 205 3-2-16
  0
TEXT
  8
TEXT
 10
43.569719
 20
98.707811
 30
0.0
 40
4.0
 50
0.0
  1

  0
TEXT
  8
DIMENSIONS
 10
22.81654
 20
85.832311
 30
0.0
 40
4.0
 50
0.0
  1
11.245
  0
TEXT
  8
DIMENSIONS
 10
61.608045
 20
97.630285
 30
0.0
 40
4.0
 50
0.0
  1
16.805
  0
TEXT
  8
DIMENSIONS
 10
61.649193
 20
87.994329
 30
0.0
 40
4.0
 50
0.0
  1
16.436
  0
TEXT
  8
DIMENSIONS
 10
37.184548
 20
74.866868
 30
0.0
 40
4.0
 50
0.0
  1
13.436
  0
TEXT
  8
TEXT
 10
45.17622
 20
113.019284
 30
0.0
 40
4.0
 50
0.0
  1
UNDERMOUNT
  0
ENDSEC
  0
EOF
