  0
SECTION
  2
ENTITIES
  0
LINE
  8
APS_GEOMETRY
 10
28.066357
 11
44.8164
 20
62.109313
 21
62.109313
  0
ARC
  8
APS_GEOMETRY
 10
44.8164
 20
62.859313
 40
0.75
 50
270.0
 51
0.0
  0
LINE
  8
APS_GEOMETRY
 10
45.5664
 11
45.5664
 20
62.859313
 21
72.3593
  0
ARC
  8
APS_GEOMETRY
 10
44.8164
 20
72.3593
 40
0.75
 50
0.0
 51
90.0
  0
LINE
  8
APS_GEOMETRY
 10
44.8164
 11
28.066357
 20
73.1093
 21
73.1093
  0
ARC
  8
APS_GEOMETRY
 10
28.066357
 20
72.3593
 40
0.75
 50
90.0
 51
180.0
  0
LINE
  8
APS_GEOMETRY
 10
27.316357
 11
27.316357
 20
72.3593
 21
62.859313
  0
ARC
  8
APS_GEOMETRY
 10
28.066357
 20
62.859313
 40
0.75
 50
180.0
 51
270.0
  0
LINE
  8
APS_GEOMETRY
 10
28.066357
 11
44.8164
 20
61.109313
 21
61.109313
  0
ARC
  8
APS_GEOMETRY
 10
44.8164
 20
62.859313
 40
1.75
 50
270.0
 51
0.0
  0
LINE
  8
APS_GEOMETRY
 10
46.5664
 11
46.5664
 20
62.859313
 21
72.3593
  0
ARC
  8
APS_GEOMETRY
 10
44.8164
 20
72.3593
 40
1.75
 50
0.0
 51
90.0
  0
LINE
  8
APS_GEOMETRY
 10
44.8164
 11
28.066357
 20
74.1093
 21
74.1093
  0
ARC
  8
APS_GEOMETRY
 10
28.066357
 20
72.3593
 40
1.75
 50
90.0
 51
180.0
  0
LINE
  8
APS_GEOMETRY
 10
26.316357
 11
26.316357
 20
72.3593
 21
62.859313
  0
ARC
  8
APS_GEOMETRY
 10
28.066357
 20
62.859313
 40
1.75
 50
180.0
 51
270.0
  0
CIRCLE
  8
APS_GEOMETRY
 10
25.565593
 20
67.609307
 40
0.125
  0
CIRCLE
  8
APS_GEOMETRY
 10
25.55816
 20
71.584713
 40
0.125
  0
CIRCLE
  8
APS_GEOMETRY
 10
25.565593
 20
63.365075
 40
0.125
  0
CIRCLE
  8
APS_GEOMETRY
 10
47.316325
 20
67.609307
 40
0.125
  0
CIRCLE
  8
APS_GEOMETRY
 10
47.316325
 20
71.423366
 40
0.125
  0
CIRCLE
  8
APS_GEOMETRY
 10
47.316325
 20
63.650184
 40
0.125
  0
LINE
  8
DIMENSIONS
 10
25.55816
 11
25.55816
 20
72.584713
 21
77.752051
  0
LINE
  8
DIMENSIONS
 10
47.316325
 11
47.316325
 20
72.423366
 21
77.752051
  0
LINE
  8
DIMENSIONS
 10
25.55816
 11
34.362531
 20
76.752051
 21
76.752051
  0
LINE
  8
DIMENSIONS
 10
44.132076
 11
47.316325
 20
76.752051
 21
76.752051
  0
LINE
  8
DIMENSIONS
 10
27.55816
 11
25.55816
 20
76.418651
 21
76.752051
  0
LINE
  8
DIMENSIONS
 10
25.55816
 11
27.55816
 20
76.752051
 21
77.085451
  0
LINE
  8
DIMENSIONS
 10
27.55816
 11
27.55816
 20
77.085451
 21
76.418651
  0
LINE
  8
DIMENSIONS
 10
45.316325
 11
47.316325
 20
77.085451
 21
76.752051
  0
LINE
  8
DIMENSIONS
 10
47.316325
 11
45.316325
 20
76.752051
 21
76.418651
  0
LINE
  8
DIMENSIONS
 10
45.316325
 11
45.316325
 20
76.418651
 21
77.085451
  0
LINE
  8
DIMENSIONS
 10
25.55816
 11
25.55816
 20
71.251313
 21
71.918113
  0
LINE
  8
DIMENSIONS
 10
25.22476
 11
25.89156
 20
71.584713
 21
71.584713
  0
LINE
  8
DIMENSIONS
 10
47.316325
 11
47.316325
 20
71.089966
 21
71.756766
  0
LINE
  8
DIMENSIONS
 10
46.982925
 11
47.649725
 20
71.423366
 21
71.423366
  0
LINE
  8
DIMENSIONS
 10
36.816059
 11
36.816059
 20
62.109313
 21
66.109307
  0
LINE
  8
DIMENSIONS
 10
36.816059
 11
36.816059
 20
69.109307
 21
73.1093
  0
LINE
  8
DIMENSIONS
 10
37.149459
 11
36.816059
 20
64.109313
 21
62.109313
  0
LINE
  8
DIMENSIONS
 10
36.816059
 11
36.482659
 20
62.109313
 21
64.109313
  0
LINE
  8
DIMENSIONS
 10
36.482659
 11
37.149459
 20
64.109313
 21
64.109313
  0
LINE
  8
DIMENSIONS
 10
36.482659
 11
36.816059
 20
71.1093
 21
73.1093
  0
LINE
  8
DIMENSIONS
 10
36.816059
 11
37.149459
 20
73.1093
 21
71.1093
  0
LINE
  8
DIMENSIONS
 10
37.149459
 11
36.482659
 20
71.1093
 21
71.1093
  0
LINE
  8
DIMENSIONS
 10
27.316357
 11
27.316357
 20
68.609307
 21
70.716177
  0
LINE
  8
DIMENSIONS
 10
45.5664
 11
45.5664
 20
68.609307
 21
70.716177
  0
LINE
  8
DIMENSIONS
 10
27.316357
 11
37.866518
 20
69.716177
 21
69.716177
  0
LINE
  8
DIMENSIONS
 10
45.5664
 11
45.5664
 20
69.716177
 21
69.716177
  0
LINE
  8
DIMENSIONS
 10
29.316357
 11
27.316357
 20
69.382777
 21
69.716177
  0
LINE
  8
DIMENSIONS
 10
27.316357
 11
29.316357
 20
69.716177
 21
70.049577
  0
LINE
  8
DIMENSIONS
 10
29.316357
 11
29.316357
 20
70.049577
 21
69.382777
  0
LINE
  8
DIMENSIONS
 10
43.5664
 11
45.5664
 20
70.049577
 21
69.716177
  0
LINE
  8
DIMENSIONS
 10
45.5664
 11
43.5664
 20
69.716177
 21
69.382777
  0
LINE
  8
DIMENSIONS
 10
43.5664
 11
43.5664
 20
69.382777
 21
70.049577
  0
LINE
  8
DIMENSIONS
 10
44.8164
 11
44.8164
 20
62.525913
 21
63.192713
  0
LINE
  8
DIMENSIONS
 10
44.483
 11
45.1498
 20
62.859313
 21
62.859313
  0
LINE
  8
DIMENSIONS
 10
44.8164
 11
47.332564
 20
62.859313
 21
61.83305
  0
LINE
  8
DIMENSIONS
 10
47.332564
 11
48.870864
 20
61.83305
 21
61.83305
  0
LINE
  8
DIMENSIONS
 10
47.236831
 11
45.510857
 20
61.512031
 21
62.576066
  0
LINE
  8
DIMENSIONS
 10
45.510857
 11
47.488657
 20
62.576066
 21
62.12945
  0
LINE
  8
DIMENSIONS
 10
47.488657
 11
47.236831
 20
62.12945
 21
61.512031
  0
TEXT
  8
TEXT
 10
31.892033
 20
81.024205
 30
0.0
 40
3.0
 50
0.0
  1
AS 223
  0
TEXT
  8
TEXT
 10
31.892033
 20
76.524205
 30
0.0
 40
3.0
 50
0.0
  1

  0
TEXT
  8
DIMENSIONS
 10
34.862532
 20
75.752051
 30
0.0
 40
2.0
 50
0.0
  1
21.758
  0
TEXT
  8
DIMENSIONS
 10
35.929809
 20
66.609307
 30
0.0
 40
2.0
 50
0.0
  1
11
  0
TEXT
  8
DIMENSIONS
 10
38.366518
 20
68.716177
 30
0.0
 40
2.0
 50
0.0
  1
18.25
  0
TEXT
  8
DIMENSIONS
 10
49.363669
 20
60.83305
 30
0.0
 40
2.0
 50
0.0
  1
0.75
  0
ENDSEC
  0
EOF
