  0
SECTION
  2
ENTITIES
  0
LINE
  8
APS_GEOMETRY
 10
1885.802595
 11
1865.552569
 20
306.450942
 21
306.450942
  0
LINE
  8
APS_GEOMETRY
 10
1865.552569
 11
1865.552569
 20
306.450942
 21
291.700897
  0
LINE
  8
APS_GEOMETRY
 10
1865.552569
 11
1885.802595
 20
291.700897
 21
291.700897
  0
LINE
  8
APS_GEOMETRY
 10
1885.802595
 11
1885.802595
 20
291.700897
 21
306.450942
  0
CIRCLE
  8
APS_GEOMETRY
 10
1865.177569
 20
304.841526
 40
0.125
  0
CIRCLE
  8
APS_GEOMETRY
 10
1865.177569
 20
293.310278
 40
0.125
  0
CIRCLE
  8
APS_GEOMETRY
 10
1886.177595
 20
293.310278
 40
0.125
  0
CIRCLE
  8
APS_GEOMETRY
 10
1886.177595
 20
304.841526
 40
0.125
  0
CIRCLE
  8
APS_GEOMETRY
 10
1875.677571
 20
291.325897
 40
0.125
  0
LINE
  8
APS_GEOMETRY
 10
1871.72449
 11
1871.72449
 20
273.282088
 21
277.652974
  0
ARC
  8
APS_GEOMETRY
 10
1872.34949
 20
277.652974
 40
0.625
 50
90.0
 51
180.0
  0
LINE
  8
APS_GEOMETRY
 10
1871.099595
 11
1876.858333
 20
278.277974
 21
278.277974
  0
LINE
  8
APS_GEOMETRY
 10
1876.858333
 11
1876.858333
 20
278.277974
 21
280.153113
  0
LINE
  8
APS_GEOMETRY
 10
1876.858333
 11
1871.724595
 20
280.153113
 21
280.153113
  0
ARC
  8
APS_GEOMETRY
 10
1871.724595
 20
279.528113
 40
0.625
 50
90.0
 51
180.0
  0
LINE
  8
APS_GEOMETRY
 10
1871.099595
 11
1871.099595
 20
279.528113
 21
278.278044
  0
LINE
  8
APS_GEOMETRY
 10
1867.240082
 11
1884.115082
 20
292.950902
 21
292.950902
  0
ARC
  8
APS_GEOMETRY
 10
1884.115082
 20
293.388402
 40
0.4375
 50
270.0
 51
0.0
  0
LINE
  8
APS_GEOMETRY
 10
1884.552582
 11
1884.552582
 20
293.388402
 21
304.763402
  0
ARC
  8
APS_GEOMETRY
 10
1884.115082
 20
304.763402
 40
0.4375
 50
0.0
 51
90.0
  0
LINE
  8
APS_GEOMETRY
 10
1884.115082
 11
1867.240082
 20
305.200902
 21
305.200902
  0
ARC
  8
APS_GEOMETRY
 10
1867.240082
 20
304.763402
 40
0.4375
 50
90.0
 51
180.0
  0
LINE
  8
APS_GEOMETRY
 10
1866.802582
 11
1866.802582
 20
304.763402
 21
293.388402
  0
ARC
  8
APS_GEOMETRY
 10
1867.240082
 20
293.388402
 40
0.4375
 50
180.0
 51
270.0
  0
LINE
  8
DIMENSIONS
 10
1865.552569
 11
1865.552569
 20
307.888401
 21
311.46249
  0
LINE
  8
DIMENSIONS
 10
1885.802595
 11
1885.802595
 20
307.888401
 21
311.46249
  0
LINE
  8
DIMENSIONS
 10
1865.552569
 11
1869.164625
 20
309.96249
 21
309.96249
  0
LINE
  8
DIMENSIONS
 10
1882.190539
 11
1885.802595
 20
309.96249
 21
309.96249
  0
LINE
  8
DIMENSIONS
 10
1868.552569
 11
1865.552569
 20
309.46239
 21
309.96249
  0
LINE
  8
DIMENSIONS
 10
1865.552569
 11
1868.552569
 20
309.96249
 21
310.46259
  0
LINE
  8
DIMENSIONS
 10
1868.552569
 11
1868.552569
 20
310.46259
 21
309.46239
  0
LINE
  8
DIMENSIONS
 10
1882.802595
 11
1885.802595
 20
310.46259
 21
309.96249
  0
LINE
  8
DIMENSIONS
 10
1885.802595
 11
1882.802595
 20
309.96249
 21
309.46239
  0
LINE
  8
DIMENSIONS
 10
1882.802595
 11
1882.802595
 20
309.46239
 21
310.46259
  0
LINE
  8
DIMENSIONS
 10
1885.615082
 11
1894.038993
 20
305.200902
 21
305.200902
  0
LINE
  8
DIMENSIONS
 10
1885.615082
 11
1894.038993
 20
292.950902
 21
292.950902
  0
LINE
  8
DIMENSIONS
 10
1892.538993
 11
1892.538993
 20
305.200902
 21
301.335336
  0
LINE
  8
DIMENSIONS
 10
1892.538993
 11
1892.538993
 20
296.801563
 21
292.950902
  0
LINE
  8
DIMENSIONS
 10
1892.038893
 11
1892.538993
 20
302.200902
 21
305.200902
  0
LINE
  8
DIMENSIONS
 10
1892.538993
 11
1893.039093
 20
305.200902
 21
302.200902
  0
LINE
  8
DIMENSIONS
 10
1893.039093
 11
1892.038893
 20
302.200902
 21
302.200902
  0
LINE
  8
DIMENSIONS
 10
1893.039093
 11
1892.538993
 20
295.950902
 21
292.950902
  0
LINE
  8
DIMENSIONS
 10
1892.538993
 11
1892.038893
 20
292.950902
 21
295.950902
  0
LINE
  8
DIMENSIONS
 10
1892.038893
 11
1893.039093
 20
295.950902
 21
295.950902
  0
LINE
  8
DIMENSIONS
 10
1866.802582
 11
1866.802582
 20
291.888402
 21
287.415432
  0
LINE
  8
DIMENSIONS
 10
1884.552582
 11
1884.552582
 20
291.888402
 21
287.415432
  0
LINE
  8
DIMENSIONS
 10
1866.802582
 11
1869.657411
 20
288.915432
 21
288.915432
  0
LINE
  8
DIMENSIONS
 10
1881.697752
 11
1884.552582
 20
288.915432
 21
288.915432
  0
LINE
  8
DIMENSIONS
 10
1869.802582
 11
1866.802582
 20
288.415332
 21
288.915432
  0
LINE
  8
DIMENSIONS
 10
1866.802582
 11
1869.802582
 20
288.915432
 21
289.415532
  0
LINE
  8
DIMENSIONS
 10
1869.802582
 11
1869.802582
 20
289.415532
 21
288.415332
  0
LINE
  8
DIMENSIONS
 10
1881.552582
 11
1884.552582
 20
289.415532
 21
288.915432
  0
LINE
  8
DIMENSIONS
 10
1884.552582
 11
1881.552582
 20
288.915432
 21
288.415332
  0
LINE
  8
DIMENSIONS
 10
1881.552582
 11
1881.552582
 20
288.415332
 21
289.415532
  0
LINE
  8
DIMENSIONS
 10
1864.052569
 11
1857.782928
 20
306.450942
 21
306.450942
  0
LINE
  8
DIMENSIONS
 10
1864.052569
 11
1857.782928
 20
291.700897
 21
291.700897
  0
LINE
  8
DIMENSIONS
 10
1859.282928
 11
1859.282928
 20
306.450942
 21
301.327495
  0
LINE
  8
DIMENSIONS
 10
1859.282928
 11
1859.282928
 20
296.80158
 21
291.700897
  0
LINE
  8
DIMENSIONS
 10
1858.782828
 11
1859.282928
 20
303.450942
 21
306.450942
  0
LINE
  8
DIMENSIONS
 10
1859.282928
 11
1859.783028
 20
306.450942
 21
303.450942
  0
LINE
  8
DIMENSIONS
 10
1859.783028
 11
1858.782828
 20
303.450942
 21
303.450942
  0
LINE
  8
DIMENSIONS
 10
1859.783028
 11
1859.282928
 20
294.700897
 21
291.700897
  0
LINE
  8
DIMENSIONS
 10
1859.282928
 11
1858.782828
 20
291.700897
 21
294.700897
  0
LINE
  8
DIMENSIONS
 10
1858.782828
 11
1859.783028
 20
294.700897
 21
294.700897
  0
TEXT
  8
TEXT
 10
1840.216916
 20
284.447188
 30
0.0
 40
2.8125
 50
0.0
  1
NOTE: 
  0
TEXT
  8
TEXT
 10
1851.288218
 20
284.447188
 30
0.0
 40
2.8125
 50
0.0
  1
CUTOUT IS + .250" SINK RIM
  0
TEXT
  8
DIMENSIONS
 10
1869.914626
 20
308.46249
 30
0.0
 40
3.0
 50
0.0
  1
20.25
  0
TEXT
  8
DIMENSIONS
 10
1887.435489
 20
297.575902
 30
0.0
 40
3.0
 50
0.0
  1
12.25
  0
TEXT
  8
DIMENSIONS
 10
1870.407411
 20
287.415432
 30
0.0
 40
3.0
 50
0.0
  1
17.75
  0
TEXT
  8
DIMENSIONS
 10
1853.846091
 20
297.575919
 30
0.0
 40
3.0
 50
0.0
  1
14.75
  0
ENDSEC
  0
EOF
