  0
SECTION
  2
HEADER
  9
$ACADVER
  1
AC1006
  0
ENDSEC
  0
SECTION
  2
TABLES
  0
TABLE
  2
LTYPE
 70
    25
  0
LTYPE
  2
CONTINUOUS
 70
    64
  3
Solid line
 72
    64
 73
     0
 40
0.000000
  0
LTYPE
  2
DASHDOT
 70
    64
  3
__ . __ . __ . __ . __ . __ . __ . __ . __ . __
 72
    65
 73
     4
 40
1.000000
 49
0.500000
 49
-0.250000
 49
0.000000
 49
-0.250000
  0
LTYPE
  2
DASHED
 70
    64
  3
__ __ __ __ __ __ __ __ __ __ __ __ __ __ __ __
 72
    65
 73
     2
 40
0.750000
 49
0.500000
 49
-0.250000
  0
LTYPE
  2
DIVIDE
 70
    64
  3
____ . . ____ . . ____ . . ____ . . ____ . . __
 72
    65
 73
     6
 40
1.250000
 49
0.500000
 49
-0.250000
 49
0.000000
 49
-0.250000
 49
0.000000
 49
-0.250000
  0
LTYPE
  2
DOT
 70
    64
  3
. . . . . . . . . . . . . . . . . . . . . . . . 
 72
    65
 73
     2
 40
0.250000
 49
0.000000
 49
-0.250000
  0
ENDTAB
  0
ENDSEC
  0
SECTION
  2
ENTITIES
  0
LINE
  8
9
 62
     7
  6
CONTINUOUS
 10
0.131747
 20
4.543824
 30
0.000000
 11
1.131736
 21
4.548643
 31
0.000000
  0
LINE
  8
9
 62
     7
  6
CONTINUOUS
 10
0.131747
 20
4.543824
 30
0.000000
 11
0.630049
 21
4.502647
 31
0.000000
  0
LINE
  8
4
 62
     4
  6
CONTINUOUS
 10
4.131747
 20
10.604824
 30
0.000000
 11
8.253747
 21
10.604824
 31
0.000000
  0
LINE
  8
4
 62
     4
  6
CONTINUOUS
 10
4.131747
 20
-1.517176
 30
0.000000
 11
8.253747
 21
-1.517176
 31
0.000000
  0
LINE
  8
4
 62
     4
  6
CONTINUOUS
 10
0.131747
 20
6.604824
 30
0.000000
 11
0.131747
 21
2.482824
 31
0.000000
  0
LINE
  8
4
 62
     4
  6
CONTINUOUS
 10
12.253747
 20
6.604824
 30
0.000000
 11
12.253747
 21
2.482824
 31
0.000000
  0
ARC
  8
4
 62
     4
  6
CONTINUOUS
 10
4.131747
 20
6.604824
 30
0.000000
 40
4.000000
 50
90.000000
 51
180.000000
  0
ARC
  8
4
 62
     4
  6
CONTINUOUS
 10
8.253747
 20
6.604824
 30
0.000000
 40
4.000000
 50
0.000000
 51
90.000000
  0
ARC
  8
4
 62
     4
  6
CONTINUOUS
 10
4.131747
 20
2.482824
 30
0.000000
 40
4.000000
 50
180.000000
 51
270.000000
  0
ARC
  8
4
 62
     4
  6
CONTINUOUS
 10
8.253747
 20
2.482824
 30
0.000000
 40
4.000000
 50
270.000000
 51
360.000000
  0
ENDSEC
  0
EOF
