  0
SECTION
  2
ENTITIES
  0
LINE
  8
APS_GEOMETRY
 10
-37.05659
 11
-37.05659
 20
60.662559
 21
62.410913
  0
ARC
  8
APS_GEOMETRY
 10
-36.80659
 20
62.410913
 40
0.25
 50
90.0
 51
180.0
  0
LINE
  8
APS_GEOMETRY
 10
-36.80659
 11
-34.503137
 20
62.660913
 21
62.660913
  0
LINE
  8
APS_GEOMETRY
 10
-34.503137
 11
-34.503137
 20
62.660913
 21
63.410913
  0
LINE
  8
APS_GEOMETRY
 10
-34.503137
 11
-36.556632
 20
63.410913
 21
63.410913
  0
ARC
  8
APS_GEOMETRY
 10
-36.556632
 20
63.160913
 40
0.25
 50
90.0
 51
180.0
  0
LINE
  8
APS_GEOMETRY
 10
-36.806632
 11
-36.806632
 20
63.160913
 21
62.660886
  0
LINE
  8
APS_GEOMETRY
 10
-36.806632
 11
-36.80659
 20
62.660886
 21
62.660913
  0
LINE
  8
APS_GEOMETRY
 10
-58.729923
 11
-28.431495
 20
66.248386
 21
66.248386
  0
LINE
  8
APS_GEOMETRY
 10
-43.593227
 11
-43.593227
 20
75.201815
 21
57.866787
  0
LINE
  8
APS_GEOMETRY
 10
-56.98973
 11
-55.156397
 20
73.506849
 21
73.506849
  0
LINE
  8
APS_GEOMETRY
 10
-57.356397
 11
-56.18973
 20
72.600794
 21
75.600794
  0
LINE
  8
APS_GEOMETRY
 10
-56.18973
 11
-55.923064
 20
75.600794
 21
75.600794
  0
LINE
  8
APS_GEOMETRY
 10
-55.923064
 11
-54.823064
 20
75.600794
 21
72.600794
  0
ARC
  8
APS_GEOMETRY
 10
-53.53991
 20
74.42075
 40
1.233133
 50
42.9037
 51
122.5462
  0
ARC
  8
APS_GEOMETRY
 10
-53.856449
 20
74.932318
 40
0.631667
 50
123.306702
 51
253.425563
  0
LINE
  8
APS_GEOMETRY
 10
-54.036639
 11
-53.036643
 20
74.326897
 21
73.99355
  0
ARC
  8
APS_GEOMETRY
 10
-53.240248
 20
73.347647
 40
0.677233
 50
299.837943
 51
72.503854
  0
ARC
  8
APS_GEOMETRY
 10
-53.553263
 20
73.887156
 40
1.300967
 50
240.02251
 51
299.973977
  0
ARC
  8
APS_GEOMETRY
 10
-53.847591
 20
73.382733
 40
0.716967
 50
209.759272
 51
240.255342
  0
LINE
  8
APS_GEOMETRY
 10
-51.997962
 11
-50.968586
 20
72.600794
 21
72.600794
  0
LINE
  8
APS_GEOMETRY
 10
-51.483274
 11
-51.483274
 20
72.600794
 21
75.600794
  0
LINE
  8
APS_GEOMETRY
 10
-51.483274
 11
-51.997962
 20
75.600794
 21
75.086106
  0
LINE
  8
APS_GEOMETRY
 10
-48.368587
 11
-50.368586
 20
72.60078
 21
72.600794
  0
ARC
  8
APS_GEOMETRY
 10
-49.311154
 20
72.602207
 40
1.057433
 50
121.813563
 51
180.07656
  0
LINE
  8
APS_GEOMETRY
 10
-49.868587
 11
-48.735261
 20
73.50078
 21
74.200781
  0
ARC
  8
APS_GEOMETRY
 10
-49.104163
 20
74.834108
 40
0.732933
 50
300.220013
 51
59.779436
  0
ARC
  8
APS_GEOMETRY
 10
-49.301947
 20
74.414361
 40
1.195867
 50
61.713834
 51
118.283685
  0
ARC
  8
APS_GEOMETRY
 10
-49.533054
 20
74.836947
 40
0.714233
 50
118.0207
 51
169.4717
  0
ARC
  8
APS_GEOMETRY
 10
-46.583661
 20
73.546403
 40
0.9822
 50
218.6887
 51
321.3113
  0
ARC
  8
APS_GEOMETRY
 10
-47.236045
 20
74.082458
 40
1.826533
 50
320.978113
 51
39.020738
  0
ARC
  8
APS_GEOMETRY
 10
-46.583644
 20
74.618491
 40
0.9822
 50
38.688157
 51
141.312908
  0
ARC
  8
APS_GEOMETRY
 10
-45.93126
 20
74.082436
 40
1.826533
 50
140.978975
 51
219.021025
  0
ARC
  8
APS_GEOMETRY
 10
-42.719482
 20
75.969309
 40
1.162961
 50
219.464006
 51
262.969114
  0
ARC
  8
APS_GEOMETRY
 10
-47.477435
 20
72.052172
 40
5.0
 50
39.464006
 51
87.082333
  0
ARC
  8
APS_GEOMETRY
 10
-51.121555
 20
0.55253
 40
76.592447
 50
87.082333
 51
92.330527
  0
ARC
  8
APS_GEOMETRY
 10
-54.053134
 20
72.585347
 40
4.5
 50
92.330527
 51
176.351611
  0
ARC
  8
APS_GEOMETRY
 10
34.308852
 20
66.951156
 40
93.041429
 50
176.351611
 51
182.773181
  0
ARC
  8
APS_GEOMETRY
 10
-53.879178
 20
62.679418
 40
4.75
 50
182.773181
 51
269.996481
  0
LINE
  8
APS_GEOMETRY
 10
-53.87947
 11
-32.426263
 20
57.929418
 21
57.928101
  0
ARC
  8
APS_GEOMETRY
 10
-32.426032
 20
61.678101
 40
3.75
 50
269.996481
 51
354.4387
  0
ARC
  8
APS_GEOMETRY
 10
-84.628597
 20
66.76101
 40
56.19944
 50
354.4387
 51
4.707074
  0
ARC
  8
APS_GEOMETRY
 10
-32.356056
 20
71.065093
 40
3.75
 50
4.707074
 51
90.0
  0
LINE
  8
APS_GEOMETRY
 10
-32.356056
 11
-42.861833
 20
74.815093
 21
74.815093
  0
LINE
  8
DIMENSIONS
 10
-58.729923
 11
-58.729923
 20
65.748386
 21
55.064477
  0
LINE
  8
DIMENSIONS
 10
-28.431495
 11
-28.431495
 20
65.748386
 21
55.064477
  0
LINE
  8
DIMENSIONS
 10
-58.729923
 11
-46.747976
 20
55.564477
 21
55.564477
  0
LINE
  8
DIMENSIONS
 10
-40.413442
 11
-28.431495
 20
55.564477
 21
55.564477
  0
LINE
  8
DIMENSIONS
 10
-57.729923
 11
-58.729923
 20
55.397777
 21
55.564477
  0
LINE
  8
DIMENSIONS
 10
-58.729923
 11
-57.729923
 20
55.564477
 21
55.731177
  0
LINE
  8
DIMENSIONS
 10
-57.729923
 11
-57.729923
 20
55.731177
 21
55.397777
  0
LINE
  8
DIMENSIONS
 10
-29.431495
 11
-28.431495
 20
55.731177
 21
55.564477
  0
LINE
  8
DIMENSIONS
 10
-28.431495
 11
-29.431495
 20
55.564477
 21
55.397777
  0
LINE
  8
DIMENSIONS
 10
-29.431495
 11
-29.431495
 20
55.397777
 21
55.731177
  0
LINE
  8
DIMENSIONS
 10
-43.093227
 11
-22.694712
 20
75.201815
 21
75.201815
  0
LINE
  8
DIMENSIONS
 10
-43.093227
 11
-22.694712
 20
57.866787
 21
57.866787
  0
LINE
  8
DIMENSIONS
 10
-23.194712
 11
-23.194712
 20
75.201815
 21
60.590461
  0
LINE
  8
DIMENSIONS
 10
-23.194712
 11
-23.194712
 20
59.075117
 21
57.866787
  0
LINE
  8
DIMENSIONS
 10
-23.361412
 11
-23.194712
 20
74.201815
 21
75.201815
  0
LINE
  8
DIMENSIONS
 10
-23.194712
 11
-23.028012
 20
75.201815
 21
74.201815
  0
LINE
  8
DIMENSIONS
 10
-23.028012
 11
-23.361412
 20
74.201815
 21
74.201815
  0
LINE
  8
DIMENSIONS
 10
-23.028012
 11
-23.194712
 20
58.866787
 21
57.866787
  0
LINE
  8
DIMENSIONS
 10
-23.194712
 11
-23.361412
 20
57.866787
 21
58.866787
  0
LINE
  8
DIMENSIONS
 10
-23.361412
 11
-23.028012
 20
58.866787
 21
58.866787
  0
LINE
  8
DIMENSIONS
 10
-43.593227
 11
-43.593227
 20
66.748386
 21
69.150041
  0
LINE
  8
DIMENSIONS
 10
-28.431495
 11
-28.431495
 20
66.748386
 21
69.150041
  0
LINE
  8
DIMENSIONS
 10
-43.593227
 11
-38.56614
 20
68.650041
 21
68.650041
  0
LINE
  8
DIMENSIONS
 10
-33.458583
 11
-28.431495
 20
68.650041
 21
68.650041
  0
LINE
  8
DIMENSIONS
 10
-42.593227
 11
-43.593227
 20
68.483341
 21
68.650041
  0
LINE
  8
DIMENSIONS
 10
-43.593227
 11
-42.593227
 20
68.650041
 21
68.816741
  0
LINE
  8
DIMENSIONS
 10
-42.593227
 11
-42.593227
 20
68.816741
 21
68.483341
  0
LINE
  8
DIMENSIONS
 10
-29.431495
 11
-28.431495
 20
68.816741
 21
68.650041
  0
LINE
  8
DIMENSIONS
 10
-28.431495
 11
-29.431495
 20
68.650041
 21
68.483341
  0
LINE
  8
DIMENSIONS
 10
-29.431495
 11
-29.431495
 20
68.483341
 21
68.816741
  0
TEXT
  8
TEXT
 10
-38.316722
 20
64.638774
 30
0.0
 40
0.5
 50
0.0
  1
NOTE: 
  0
TEXT
  8
TEXT
 10
-38.316722
 20
63.888774
 30
0.0
 40
0.5
 50
0.0
  1
                   
  0
TEXT
  8
TEXT
 10
-36.348491
 20
64.638774
 30
0.0
 40
0.5
 50
0.0
  1
TEMPLATE IS .250
  0
TEXT
  8
TEXT
 10
-36.348491
 20
63.888774
 30
0.0
 40
0.5
 50
0.0
  1
-SINK RIM
  0
TEXT
  8
DIMENSIONS
 10
-46.52477
 20
55.064477
 30
0.0
 40
1.0
 50
0.0
  1
30.2984
  0
TEXT
  8
DIMENSIONS
 10
-25.900732
 20
59.337314
 30
0.0
 40
1.0
 50
0.0
  1
17.3350
  0
TEXT
  8
DIMENSIONS
 10
-38.31614
 20
68.150041
 30
0.0
 40
1.0
 50
0.0
  1
15.1617
  0
ENDSEC
  0
EOF
