  0
SECTION
  2
HEADER
  9
$ACADVER
  1
AC1006
  0
ENDSEC
  0
SECTION
  2
TABLES
  0
TABLE
  2
LTYPE
 70
    25
  0
LTYPE
  2
CONTINUOUS
 70
    64
  3
Solid line
 72
    64
 73
     0
 40
0.000000
  0
LTYPE
  2
DASHDOT
 70
    64
  3
__ . __ . __ . __ . __ . __ . __ . __ . __ . __
 72
    65
 73
     4
 40
1.000000
 49
0.500000
 49
-0.250000
 49
0.000000
 49
-0.250000
  0
LTYPE
  2
DASHED
 70
    64
  3
__ __ __ __ __ __ __ __ __ __ __ __ __ __ __ __
 72
    65
 73
     2
 40
0.750000
 49
0.500000
 49
-0.250000
  0
LTYPE
  2
DIVIDE
 70
    64
  3
____ . . ____ . . ____ . . ____ . . ____ . . __
 72
    65
 73
     6
 40
1.250000
 49
0.500000
 49
-0.250000
 49
0.000000
 49
-0.250000
 49
0.000000
 49
-0.250000
  0
LTYPE
  2
DOT
 70
    64
  3
. . . . . . . . . . . . . . . . . . . . . . . . 
 72
    65
 73
     2
 40
0.250000
 49
0.000000
 49
-0.250000
  0
ENDTAB
  0
ENDSEC
  0
SECTION
  2
ENTITIES
  0
LINE
  8
9
 62
     7
  6
CONTINUOUS
 10
-7.581828
 20
4.789366
 30
0.000000
 11
-6.581840
 21
4.794185
 31
0.000000
  0
LINE
  8
9
 62
     7
  6
CONTINUOUS
 10
-7.581828
 20
4.789366
 30
0.000000
 11
-7.083526
 21
4.748189
 31
0.000000
  0
LINE
  8
4
 62
     4
  6
CONTINUOUS
 10
-3.581828
 20
-5.105634
 30
0.000000
 11
18.508172
 21
-5.105634
 31
0.000000
  0
ARC
  8
4
 62
     4
  6
CONTINUOUS
 10
-3.581828
 20
10.684366
 30
0.000000
 40
4.000000
 50
90.000000
 51
180.000000
  0
ARC
  8
4
 62
     4
  6
CONTINUOUS
 10
-3.581828
 20
-1.105634
 30
0.000000
 40
4.000000
 50
180.000000
 51
270.000000
  0
LINE
  8
4
 62
     4
  6
CONTINUOUS
 10
22.248172
 20
-1.365634
 30
0.000000
 11
22.248172
 21
7.604366
 31
0.000000
  0
ARC
  8
4
 62
     4
  6
CONTINUOUS
 10
18.508172
 20
-1.365634
 30
0.000000
 40
3.740000
 50
270.000000
 51
360.000000
  0
ARC
  8
4
 62
     4
  6
CONTINUOUS
 10
18.508172
 20
7.604366
 30
0.000000
 40
3.740000
 50
0.000000
 51
90.000000
  0
LINE
  8
4
 62
     4
  6
CONTINUOUS
 10
10.531832
 20
11.344366
 30
0.000000
 11
18.508172
 21
11.344366
 31
0.000000
  0
ARC
  8
4
 62
     4
  6
CONTINUOUS
 10
11.329529
 20
15.264019
 30
0.000000
 40
4.000000
 50
216.681979
 51
258.496717
  0
ARC
  8
4
 62
     4
  6
CONTINUOUS
 10
4.764762
 20
10.699410
 30
0.000000
 40
4.000000
 50
32.941291
 51
94.970762
  0
LINE
  8
4
 62
     4
  6
CONTINUOUS
 10
-3.581828
 20
14.684366
 30
0.000000
 11
4.418172
 21
14.684366
 31
0.000000
  0
LINE
  8
4
 62
     4
  6
CONTINUOUS
 10
-7.581828
 20
-1.105634
 30
0.000000
 11
-7.581828
 21
10.684366
 31
0.000000
  0
ENDSEC
  0
EOF
