  0
SECTION
  2
ENTITIES
  0
LINE
  8
APS_GEOMETRY
 10
37.299597
 11
6.444587
 20
2.783087
 21
2.783087
  0
ARC
  8
APS_GEOMETRY
 10
33.674597
 20
-1.883404
 40
3.625
 50
270.0
 51
0.0
  0
LINE
  8
APS_GEOMETRY
 10
37.299597
 11
37.299597
 20
-1.883404
 21
7.449578
  0
ARC
  8
APS_GEOMETRY
 10
33.674597
 20
7.449578
 40
3.625
 50
0.0
 51
90.0
  0
LINE
  8
APS_GEOMETRY
 10
33.674597
 11
10.069587
 20
11.074578
 21
11.074578
  0
ARC
  8
APS_GEOMETRY
 10
10.069587
 20
7.449578
 40
3.625
 50
90.0
 51
180.0
  0
LINE
  8
APS_GEOMETRY
 10
6.444587
 11
6.444587
 20
7.449578
 21
-1.883404
  0
ARC
  8
APS_GEOMETRY
 10
10.069587
 20
-1.883404
 40
3.625
 50
180.0
 51
270.0
  0
LINE
  8
APS_GEOMETRY
 10
10.069587
 11
33.674597
 20
-5.508404
 21
-5.508404
  0
LINE
  8
APS_GEOMETRY
 10
21.869402
 11
21.869404
 20
-5.445904
 21
11.012078
  0
LINE
  8
DIMENSIONS
 10
6.444587
 11
6.444587
 20
2.533087
 21
-6.445167
  0
LINE
  8
DIMENSIONS
 10
37.299597
 11
37.299597
 20
2.533087
 21
-6.445167
  0
LINE
  8
DIMENSIONS
 10
6.444587
 11
33.215222
 20
-6.195167
 21
-6.195167
  0
LINE
  8
DIMENSIONS
 10
36.380142
 11
37.299597
 20
-6.195167
 21
-6.195167
  0
LINE
  8
DIMENSIONS
 10
6.944587
 11
6.444587
 20
-6.278517
 21
-6.195167
  0
LINE
  8
DIMENSIONS
 10
6.444587
 11
6.944587
 20
-6.195167
 21
-6.111817
  0
LINE
  8
DIMENSIONS
 10
6.944587
 11
6.944587
 20
-6.111817
 21
-6.278517
  0
LINE
  8
DIMENSIONS
 10
36.799597
 11
37.299597
 20
-6.111817
 21
-6.195167
  0
LINE
  8
DIMENSIONS
 10
37.299597
 11
36.799597
 20
-6.195167
 21
-6.278517
  0
LINE
  8
DIMENSIONS
 10
36.799597
 11
36.799597
 20
-6.278517
 21
-6.111817
  0
LINE
  8
DIMENSIONS
 10
22.119404
 11
39.304613
 20
11.012078
 21
11.012078
  0
LINE
  8
DIMENSIONS
 10
22.119402
 11
39.304613
 20
-5.445904
 21
-5.445904
  0
LINE
  8
DIMENSIONS
 10
39.054613
 11
39.054613
 20
11.012078
 21
-4.116634
  0
LINE
  8
DIMENSIONS
 10
39.054613
 11
39.054613
 20
-4.873493
 21
-5.445904
  0
LINE
  8
DIMENSIONS
 10
38.971263
 11
39.054613
 20
10.512078
 21
11.012078
  0
LINE
  8
DIMENSIONS
 10
39.054613
 11
39.137963
 20
11.012078
 21
10.512078
  0
LINE
  8
DIMENSIONS
 10
39.137963
 11
38.971263
 20
10.512078
 21
10.512078
  0
LINE
  8
DIMENSIONS
 10
39.137963
 11
39.054613
 20
-4.945904
 21
-5.445904
  0
LINE
  8
DIMENSIONS
 10
39.054613
 11
38.971263
 20
-5.445904
 21
-4.945904
  0
LINE
  8
DIMENSIONS
 10
38.971263
 11
39.137963
 20
-4.945904
 21
-4.945904
  0
LINE
  8
APS_GEOMETRY
 10
26.486212
 11
26.486212
 20
-3.153068
 21
-1.404714
  0
ARC
  8
APS_GEOMETRY
 10
26.736212
 20
-1.404714
 40
0.25
 50
90.0
 51
180.0
  0
LINE
  8
APS_GEOMETRY
 10
26.736212
 11
29.039665
 20
-1.154714
 21
-1.154714
  0
LINE
  8
APS_GEOMETRY
 10
29.039665
 11
29.039665
 20
-1.154714
 21
-0.404714
  0
LINE
  8
APS_GEOMETRY
 10
29.039665
 11
26.98617
 20
-0.404714
 21
-0.404714
  0
ARC
  8
APS_GEOMETRY
 10
26.98617
 20
-0.654714
 40
0.25
 50
90.0
 51
180.0
  0
LINE
  8
APS_GEOMETRY
 10
26.73617
 11
26.73617
 20
-0.654714
 21
-1.154742
  0
LINE
  8
APS_GEOMETRY
 10
26.73617
 11
26.736212
 20
-1.154742
 21
-1.154714
  0
TEXT
  8
DIMENSIONS
 10
33.326825
 20
-6.445167
 30
0.0
 40
0.5
 50
0.0
  1
30.8550
  0
TEXT
  8
DIMENSIONS
 10
37.675876
 20
-4.742395
 30
0.0
 40
0.5
 50
0.0
  1
16.4580
  0
TEXT
  8
TEXT
 10
7.751192
 20
5.167855
 30
0.0
 40
3.0
 50
0.0
  1
AS128
  0
TEXT
  8
TEXT
 10
25.22608
 20
0.823146
 30
0.0
 40
0.5
 50
0.0
  1
NOTE: 
  0
TEXT
  8
TEXT
 10
25.22608
 20
0.073146
 30
0.0
 40
0.5
 50
0.0
  1
                   
  0
TEXT
  8
TEXT
 10
27.194312
 20
0.823146
 30
0.0
 40
0.5
 50
0.0
  1
TEMPLATE IS .250
  0
TEXT
  8
TEXT
 10
27.194312
 20
0.073146
 30
0.0
 40
0.5
 50
0.0
  1
-SINK RIM
  0
ENDSEC
  0
EOF
