  0
SECTION
  2
ENTITIES
  0
ARC
  8
APS_GEOMETRY
 10
-2.023094
 20
-12.865158
 40
3.75
 50
185.048144
 51
263.921073
  0
ARC
  8
APS_GEOMETRY
 10
45.542475
 20
-8.663433
 40
51.500789
 50
174.168609
 51
185.048144
  0
ARC
  8
APS_GEOMETRY
 10
-1.961213
 20
-3.811889
 40
3.75
 50
95.388065
 51
174.168609
  0
ARC
  8
APS_GEOMETRY
 10
0.684305
 20
-31.4355
 40
31.5
 50
89.103757
 51
95.460723
  0
LINE
  8
APS_GEOMETRY
 10
1.17702
 11
14.631765
 20
0.060646
 21
0.060646
  0
ARC
  8
APS_GEOMETRY
 10
15.12448
 20
-31.4355
 40
31.5
 50
84.539277
 51
90.896243
  0
ARC
  8
APS_GEOMETRY
 10
17.769997
 20
-3.811889
 40
3.75
 50
5.831391
 51
84.611935
  0
ARC
  8
APS_GEOMETRY
 10
-29.73369
 20
-8.663433
 40
51.500789
 50
354.951856
 51
5.831391
  0
ARC
  8
APS_GEOMETRY
 10
17.831879
 20
-12.865158
 40
3.75
 50
276.078927
 51
354.951856
  0
ARC
  8
APS_GEOMETRY
 10
15.019292
 20
13.233731
 40
30.0
 50
269.259857
 51
276.141842
  0
LINE
  8
APS_GEOMETRY
 10
14.631765
 11
1.17702
 20
-16.763766
 21
-16.763766
  0
ARC
  8
APS_GEOMETRY
 10
0.789492
 20
13.233731
 40
30.0
 50
263.858158
 51
270.740143
  0
LINE
  8
APS_GEOMETRY
 10
7.904392
 11
7.904392
 20
0.060646
 21
-16.763766
  0
LINE
  8
APS_GEOMETRY
 10
-5.95737
 11
21.766154
 20
-8.35156
 21
-8.35156
  0
LINE
  8
DIMENSIONS
 10
-5.95737
 11
-5.95737
 20
-8.60156
 21
-17.981731
  0
LINE
  8
DIMENSIONS
 10
21.766154
 11
21.766154
 20
-8.60156
 21
-17.981731
  0
LINE
  8
DIMENSIONS
 10
-5.95737
 11
17.956579
 20
-17.731731
 21
-17.731731
  0
LINE
  8
DIMENSIONS
 10
21.017883
 11
21.766154
 20
-17.731731
 21
-17.731731
  0
LINE
  8
DIMENSIONS
 10
-5.45737
 11
-5.95737
 20
-17.815081
 21
-17.731731
  0
LINE
  8
DIMENSIONS
 10
-5.95737
 11
-5.45737
 20
-17.731731
 21
-17.648381
  0
LINE
  8
DIMENSIONS
 10
-5.45737
 11
-5.45737
 20
-17.648381
 21
-17.815081
  0
LINE
  8
DIMENSIONS
 10
21.266154
 11
21.766154
 20
-17.648381
 21
-17.731731
  0
LINE
  8
DIMENSIONS
 10
21.766154
 11
21.266154
 20
-17.731731
 21
-17.815081
  0
LINE
  8
DIMENSIONS
 10
21.266154
 11
21.266154
 20
-17.815081
 21
-17.648381
  0
LINE
  8
DIMENSIONS
 10
8.154392
 11
23.532535
 20
0.060646
 21
0.060646
  0
LINE
  8
DIMENSIONS
 10
8.154392
 11
23.532535
 20
-16.763766
 21
-16.763766
  0
LINE
  8
DIMENSIONS
 10
23.282535
 11
23.282535
 20
0.060646
 21
-15.457507
  0
LINE
  8
DIMENSIONS
 10
23.282535
 11
23.282535
 20
-16.214401
 21
-16.763766
  0
LINE
  8
DIMENSIONS
 10
23.199185
 11
23.282535
 20
-0.439354
 21
0.060646
  0
LINE
  8
DIMENSIONS
 10
23.282535
 11
23.365885
 20
0.060646
 21
-0.439354
  0
LINE
  8
DIMENSIONS
 10
23.365885
 11
23.199185
 20
-0.439354
 21
-0.439354
  0
LINE
  8
DIMENSIONS
 10
23.365885
 11
23.282535
 20
-16.263766
 21
-16.763766
  0
LINE
  8
DIMENSIONS
 10
23.282535
 11
23.199185
 20
-16.763766
 21
-16.263766
  0
LINE
  8
DIMENSIONS
 10
23.199185
 11
23.365885
 20
-16.263766
 21
-16.263766
  0
LINE
  8
APS_GEOMETRY
 10
12.052225
 11
12.052225
 20
-15.12799
 21
-13.379635
  0
ARC
  8
APS_GEOMETRY
 10
12.302225
 20
-13.379635
 40
0.25
 50
90.0
 51
180.0
  0
LINE
  8
APS_GEOMETRY
 10
12.302225
 11
12.524214
 20
-13.129635
 21
-13.129635
  0
LINE
  8
APS_GEOMETRY
 10
12.524214
 11
14.605678
 20
-13.129635
 21
-13.129635
  0
LINE
  8
APS_GEOMETRY
 10
12.302225
 11
12.302182
 20
-13.129635
 21
-13.129663
  0
LINE
  8
APS_GEOMETRY
 10
12.302182
 11
12.302182
 20
-13.129663
 21
-12.629635
  0
ARC
  8
APS_GEOMETRY
 10
12.552182
 20
-12.629635
 40
0.25
 50
90.0
 51
180.0
  0
LINE
  8
APS_GEOMETRY
 10
12.552182
 11
14.605678
 20
-12.379635
 21
-12.379635
  0
LINE
  8
APS_GEOMETRY
 10
14.605678
 11
14.605678
 20
-12.379635
 21
-13.129635
  0
TEXT
  8
DIMENSIONS
 10
18.081579
 20
-17.981731
 30
0.0
 40
0.5
 50
0.0
  1
27.7235
  0
TEXT
  8
DIMENSIONS
 10
21.898517
 20
-16.084079
 30
0.0
 40
0.5
 50
0.0
  1
16.8244
  0
TEXT
  8
TEXT
 10
-3.695178
 20
-4.301031
 30
0.0
 40
2.0
 50
0.0
  1
AS131
  0
TEXT
  8
TEXT
 10
-3.695178
 20
-7.301031
 30
0.0
 40
2.0
 50
0.0
  1

  0
TEXT
  8
TEXT
 10
11.175426
 20
-11.151775
 30
0.0
 40
0.5
 50
0.0
  1
OTE: 
  0
TEXT
  8
TEXT
 10
11.267092
 20
-11.901775
 30
0.0
 40
0.5
 50
0.0
  1
                   
  0
TEXT
  8
TEXT
 10
12.760324
 20
-11.151775
 30
0.0
 40
0.5
 50
0.0
  1
TEMPLATE IS .250
  0
TEXT
  8
TEXT
 10
12.760324
 20
-11.901775
 30
0.0
 40
0.5
 50
0.0
  1
-SINK RIM
  0
TEXT
  8
TEXT
 10
10.792092
 20
-11.901775
 30
0.0
 40
0.5
 50
0.0
  1
 
  0
TEXT
  8
TEXT
 10
10.792092
 20
-11.151775
 30
0.0
 40
0.5
 50
0.0
  1
N
  0
ENDSEC
  0
EOF
