  0
SECTION
  2
ENTITIES
  0
ARC
  8
0
 62
1
 10
-5.546596 
 20
 0.942659 
 30
0.0
 40
 5.214934 
 50
 217.749804825024 
 51
 310.208286097852 
  0
ARC
  8
0
 62
1
 10
-6.334291 
 20
-6.848872E-02 
 30
0.0
 40
 3.985718 
 50
 142.822971149226 
 51
 213.184178535304 
  0
ARC
  8
0
 62
1
 10
-1.650936 
 20
-3.984915 
 30
0.0
 40
 10.08808 
 50
 98.201208703576 
 51
 141.173152615803 
  0
ARC
  8
0
 62
1
 10
 0.1137955 
 20
-10.93558 
 30
0.0
 40
 17.23596 
 50
 79.6514189580515 
 51
 100.712361902549 
  0
ARC
  8
0
 62
1
 10
 1.837591 
 20
-3.730593 
 30
0.0
 40
 9.846704 
 50
 37.399585305019 
 51
 81.9881769369694 
  0
ARC
  8
0
 62
1
 10
 6.365043 
 20
 9.674513E-02 
 30
0.0
 40
 3.936146 
 50
 325.016627990126 
 51
 33.1646255484485 
  0
ARC
  8
0
 62
1
 10
 1.872729 
 20
 3.602279 
 30
0.0
 40
 9.631207 
 50
 280.936690790884 
 51
 323.252280844715 
  0
ARC
  8
0
 62
1
 10
-0.1826216 
 20
 11.42633 
 30
0.0
 40
 17.71115 
 50
 259.425037323494 
 51
 282.663171367541 
  0
ARC
  8
0
 62
1
 10
-2.135923 
 20
 3.258456 
 30
0.0
 40
 9.333028 
 50
 216.171990145822 
 51
 262.011329433517 
  0
ARC
  8
0
 62
1
 10
-6.334291 
 20
-6.848872E-02 
 30
0.0
 40
 3.985718 
 50
 142.822971149226 
 51
 213.184178535304 
  0
ARC
  8
0
 62
1
 10
-5.666776 
 20
-0.8351948 
 30
0.0
 40
 4.985201 
 50
 46.9705005763709 
 51
 140.437158751696 
  0
ENDSEC
  0
EOF
