  0
SECTION
  2
ENTITIES
  0
LINE
  8
APS_GEOMETRY
 10
63.6566
 11
47.656592
 20
96.1827
 21
96.1827
  0
ARC
  8
APS_GEOMETRY
 10
47.656592
 20
94.6827
 40
1.5
 50
90.0
 51
180.0
  0
LINE
  8
APS_GEOMETRY
 10
46.156592
 11
46.156592
 20
94.6827
 21
84.43273
  0
ARC
  8
APS_GEOMETRY
 10
47.656592
 20
84.43273
 40
1.5
 50
180.0
 51
270.0
  0
LINE
  8
APS_GEOMETRY
 10
47.656592
 11
63.6566
 20
82.93273
 21
82.93273
  0
ARC
  8
APS_GEOMETRY
 10
63.6566
 20
84.43273
 40
1.5
 50
270.0
 51
0.0
  0
LINE
  8
APS_GEOMETRY
 10
65.1566
 11
65.1566
 20
84.43273
 21
94.6827
  0
ARC
  8
APS_GEOMETRY
 10
63.6566
 20
94.6827
 40
1.5
 50
0.0
 51
90.0
  0
ARC
  8
APS_GEOMETRY
 10
47.156592
 20
97.6827
 40
1.5
 50
270.0
 51
270.0
  0
LINE
  8
DIMENSIONS
 10
46.156592
 11
53.028182
 20
88.899861
 21
88.899861
  0
LINE
  8
DIMENSIONS
 10
58.28501
 11
65.1566
 20
88.899861
 21
88.899861
  0
LINE
  8
DIMENSIONS
 10
49.156592
 11
46.156592
 20
88.399761
 21
88.899861
  0
LINE
  8
DIMENSIONS
 10
46.156592
 11
49.156592
 20
88.899861
 21
89.399961
  0
LINE
  8
DIMENSIONS
 10
49.156592
 11
49.156592
 20
89.399961
 21
88.399761
  0
LINE
  8
DIMENSIONS
 10
62.1566
 11
65.1566
 20
89.399961
 21
88.899861
  0
LINE
  8
DIMENSIONS
 10
65.1566
 11
62.1566
 20
88.899861
 21
88.399761
  0
LINE
  8
DIMENSIONS
 10
62.1566
 11
62.1566
 20
88.399761
 21
89.399961
  0
LINE
  8
DIMENSIONS
 10
54.156596
 11
38.786635
 20
96.1827
 21
96.1827
  0
LINE
  8
DIMENSIONS
 10
54.156596
 11
38.786635
 20
82.93273
 21
82.93273
  0
LINE
  8
DIMENSIONS
 10
40.286635
 11
40.286635
 20
96.1827
 21
91.817157
  0
LINE
  8
DIMENSIONS
 10
40.286635
 11
40.286635
 20
87.283376
 21
82.93273
  0
LINE
  8
DIMENSIONS
 10
39.786535
 11
40.286635
 20
93.1827
 21
96.1827
  0
LINE
  8
DIMENSIONS
 10
40.286635
 11
40.786735
 20
96.1827
 21
93.1827
  0
LINE
  8
DIMENSIONS
 10
40.786735
 11
39.786535
 20
93.1827
 21
93.1827
  0
LINE
  8
DIMENSIONS
 10
40.786735
 11
40.286635
 20
85.93273
 21
82.93273
  0
LINE
  8
DIMENSIONS
 10
40.286635
 11
39.786535
 20
82.93273
 21
85.93273
  0
LINE
  8
DIMENSIONS
 10
39.786535
 11
40.786735
 20
85.93273
 21
85.93273
  0
TEXT
  8
TEXT
 10
50.4711
 20
99.807482
 30
0.0
 40
3.0
 50
0.0
  1
AS 228
  0
TEXT
  8
TEXT
 10
50.4711
 20
95.307482
 30
0.0
 40
3.0
 50
0.0
  1

  0
TEXT
  8
DIMENSIONS
 10
53.778182
 20
87.399861
 30
0.0
 40
3.0
 50
0.0
  1
19
  0
TEXT
  8
DIMENSIONS
 10
35.104702
 20
88.057715
 30
0.0
 40
3.0
 50
0.0
  1
13.25
  0
TEXT
  8
TEXT
 10
47.696961
 20
105.494687
 30
0.0
 40
3.0
 50
0.0
  1
TOP MOUNT 
  0
TEXT
  8
TEXT
 10
47.696961
 20
100.994687
 30
0.0
 40
3.0
 50
0.0
  1

  0
ENDSEC
  0
EOF
