  0
SECTION
  2
ENTITIES
  0
LINE
  8
APS_GEOMETRY
 10
33.547361
 11
51.2974
 20
45.462327
 21
45.462327
  0
ARC
  8
APS_GEOMETRY
 10
51.2974
 20
45.962327
 40
0.5
 50
270.0
 51
0.0
  0
LINE
  8
APS_GEOMETRY
 10
51.7974
 11
51.7974
 20
45.962327
 21
57.4623
  0
ARC
  8
APS_GEOMETRY
 10
51.2974
 20
57.4623
 40
0.5
 50
0.0
 51
90.0
  0
LINE
  8
APS_GEOMETRY
 10
51.2974
 11
33.547361
 20
57.9623
 21
57.9623
  0
ARC
  8
APS_GEOMETRY
 10
33.547361
 20
57.4623
 40
0.5
 50
90.0
 51
180.0
  0
LINE
  8
APS_GEOMETRY
 10
33.047361
 11
33.047361
 20
57.4623
 21
45.962327
  0
ARC
  8
APS_GEOMETRY
 10
33.547361
 20
45.962327
 40
0.5
 50
180.0
 51
270.0
  0
LINE
  8
APS_GEOMETRY
 10
33.547361
 11
51.2974
 20
44.462327
 21
44.462327
  0
ARC
  8
APS_GEOMETRY
 10
51.2974
 20
45.962327
 40
1.5
 50
270.0
 51
0.0
  0
LINE
  8
APS_GEOMETRY
 10
52.7974
 11
52.7974
 20
45.962327
 21
57.4623
  0
ARC
  8
APS_GEOMETRY
 10
51.2974
 20
57.4623
 40
1.5
 50
0.0
 51
90.0
  0
LINE
  8
APS_GEOMETRY
 10
51.2974
 11
33.547361
 20
58.9623
 21
58.9623
  0
ARC
  8
APS_GEOMETRY
 10
33.547361
 20
57.4623
 40
1.5
 50
90.0
 51
180.0
  0
LINE
  8
APS_GEOMETRY
 10
32.047361
 11
32.047361
 20
57.4623
 21
45.962327
  0
ARC
  8
APS_GEOMETRY
 10
33.547361
 20
45.962327
 40
1.5
 50
180.0
 51
270.0
  0
CIRCLE
  8
APS_GEOMETRY
 10
31.2974
 20
51.7123
 40
0.25
  0
CIRCLE
  8
APS_GEOMETRY
 10
31.2974
 20
57.462286
 40
0.25
  0
CIRCLE
  8
APS_GEOMETRY
 10
31.2974
 20
45.962314
 40
0.25
  0
CIRCLE
  8
APS_GEOMETRY
 10
53.5474
 20
45.962314
 40
0.25
  0
CIRCLE
  8
APS_GEOMETRY
 10
53.5474
 20
57.462286
 40
0.25
  0
CIRCLE
  8
APS_GEOMETRY
 10
53.5474
 20
51.7123
 40
0.25
  0
LINE
  8
DIMENSIONS
 10
42.111459
 11
42.111459
 20
45.462327
 21
50.196088
  0
LINE
  8
DIMENSIONS
 10
42.111459
 11
42.111459
 20
53.218603
 21
57.9623
  0
LINE
  8
DIMENSIONS
 10
42.444859
 11
42.111459
 20
47.462327
 21
45.462327
  0
LINE
  8
DIMENSIONS
 10
42.111459
 11
41.778059
 20
45.462327
 21
47.462327
  0
LINE
  8
DIMENSIONS
 10
41.778059
 11
42.444859
 20
47.462327
 21
47.462327
  0
LINE
  8
DIMENSIONS
 10
41.778059
 11
42.111459
 20
55.9623
 21
57.9623
  0
LINE
  8
DIMENSIONS
 10
42.111459
 11
42.444859
 20
57.9623
 21
55.9623
  0
LINE
  8
DIMENSIONS
 10
42.444859
 11
41.778059
 20
55.9623
 21
55.9623
  0
LINE
  8
DIMENSIONS
 10
33.047361
 11
33.047361
 20
52.712314
 21
61.284607
  0
LINE
  8
DIMENSIONS
 10
51.7974
 11
51.7974
 20
52.712314
 21
61.284607
  0
LINE
  8
DIMENSIONS
 10
33.047361
 11
38.407447
 20
60.284607
 21
60.284607
  0
LINE
  8
DIMENSIONS
 10
46.437314
 11
51.7974
 20
60.284607
 21
60.284607
  0
LINE
  8
DIMENSIONS
 10
35.047361
 11
33.047361
 20
59.951207
 21
60.284607
  0
LINE
  8
DIMENSIONS
 10
33.047361
 11
35.047361
 20
60.284607
 21
60.618007
  0
LINE
  8
DIMENSIONS
 10
35.047361
 11
35.047361
 20
60.618007
 21
59.951207
  0
LINE
  8
DIMENSIONS
 10
49.7974
 11
51.7974
 20
60.618007
 21
60.284607
  0
LINE
  8
DIMENSIONS
 10
51.7974
 11
49.7974
 20
60.284607
 21
59.951207
  0
LINE
  8
DIMENSIONS
 10
49.7974
 11
49.7974
 20
59.951207
 21
60.618007
  0
LINE
  8
DIMENSIONS
 10
31.2974
 11
31.2974
 20
58.462286
 21
63.730343
  0
LINE
  8
DIMENSIONS
 10
53.5474
 11
53.5474
 20
58.462286
 21
63.730343
  0
LINE
  8
DIMENSIONS
 10
31.2974
 11
38.196523
 20
62.730343
 21
62.730343
  0
LINE
  8
DIMENSIONS
 10
46.648277
 11
53.5474
 20
62.730343
 21
62.730343
  0
LINE
  8
DIMENSIONS
 10
33.2974
 11
31.2974
 20
62.396943
 21
62.730343
  0
LINE
  8
DIMENSIONS
 10
31.2974
 11
33.2974
 20
62.730343
 21
63.063743
  0
LINE
  8
DIMENSIONS
 10
33.2974
 11
33.2974
 20
63.063743
 21
62.396943
  0
LINE
  8
DIMENSIONS
 10
51.5474
 11
53.5474
 20
63.063743
 21
62.730343
  0
LINE
  8
DIMENSIONS
 10
53.5474
 11
51.5474
 20
62.730343
 21
62.396943
  0
LINE
  8
DIMENSIONS
 10
51.5474
 11
51.5474
 20
62.396943
 21
63.063743
  0
LINE
  8
DIMENSIONS
 10
31.2974
 11
31.2974
 20
57.128886
 21
57.795686
  0
LINE
  8
DIMENSIONS
 10
30.964
 11
31.6308
 20
57.462286
 21
57.462286
  0
LINE
  8
DIMENSIONS
 10
53.5474
 11
53.5474
 20
57.128886
 21
57.795686
  0
LINE
  8
DIMENSIONS
 10
53.214
 11
53.8808
 20
57.462286
 21
57.462286
  0
TEXT
  8
TEXT
 10
33.552899
 20
67.517007
 30
0.0
 40
2.0
 50
0.0
  1
AS238 8-24-16 
  0
TEXT
  8
TEXT
 10
33.552899
 20
64.517007
 30
0.0
 40
2.0
 50
0.0
  1
.25 OVERHANG 
  0
TEXT
  8
DIMENSIONS
 10
38.907447
 20
59.284607
 30
0.0
 40
2.0
 50
0.0
  1
18.75
  0
TEXT
  8
DIMENSIONS
 10
39.57579
 20
50.712314
 30
0.0
 40
2.0
 50
0.0
  1
12.5
  0
TEXT
  8
DIMENSIONS
 10
38.696523
 20
61.730343
 30
0.0
 40
2.0
 50
0.0
  1
22.25
  0
ENDSEC
  0
EOF
