  0
SECTION
  2
ENTITIES
  0
ARC
  8
0
 62
1
 10
-6.260277 
 20
-5.15711 
 30
0.0
 40
 4.262747 
 50
 266.102803991117 
 51
 9.82114010533636 
  0
ARC
  8
0
 62
1
 10
-6.588148 
 20
-5.272882 
 30
0.0
 40
 4.137294 
 50
 186.357340158396 
 51
 270.528302119844 
  0
ARC
  8
0
 62
1
 10
 23.19323 
 20
-2.36521 
 30
0.0
 40
 34.05994 
 50
 171.00670856685 
 51
 185.671206675223 
  0
ARC
  8
0
 62
1
 10
-2.596296 
 20
 1.447321 
 30
0.0
 40
 7.995901 
 50
 133.378513415246 
 51
 169.102260581202 
  0
ARC
  8
0
 62
1
 10
-2.792746 
 20
 1.822502 
 30
0.0
 40
 7.589152 
 50
 95.3169837419963 
 51
 134.245961100103 
  0
ARC
  8
0
 62
1
 10
 0.1001977 
 20
-28.51616 
 30
0.0
 40
 38.06542 
 50
 85.0103034178737 
 51
 95.4210553343662 
  0
ARC
  8
0
 62
1
 10
 2.605473 
 20
 1.455998 
 30
0.0
 40
 7.989712 
 50
 46.6405034017594 
 51
 84.2135755116741 
  0
ARC
  8
0
 62
1
 10
 2.991231 
 20
 1.617729 
 30
0.0
 40
 7.609159 
 50
 10.5812752730624 
 51
 47.9163827385512 
  0
ARC
  8
0
 62
1
 10
-22.29356 
 20
-2.515307 
 30
0.0
 40
 33.22801 
 50
 354.49146240601 
 51
 9.58061157865118 
  0
ARC
  8
0
 62
1
 10
 6.723674 
 20
-5.274968 
 30
0.0
 40
 4.080051 
 50
 269.822005918243 
 51
 353.949855725656 
  0
ARC
  8
0
 62
1
 10
-0.3486355 
 20
 94.08534 
 30
0.0
 40
 103.681 
 50
 266.570972477525 
 51
 273.9043007016 
  0
ARC
  8
0
 62
1
 10
-6.588148 
 20
-5.272882 
 30
0.0
 40
 4.137294 
 50
 186.357340158396 
 51
 270.528302119844 
  0
ARC
  8
0
 62
1
 10
-6.132622 
 20
-5.435896 
 30
0.0
 40
 4.576902 
 50
 90.0923603106715 
 51
 183.696817552483 
  0
ENDSEC
  0
EOF
