  0
SECTION
  2
ENTITIES
  0
LINE
  8
APS_GEOMETRY
 10
19.896194
 11
19.896194
 20
22.134273
 21
20.509273
  0
ARC
  8
APS_GEOMETRY
 10
20.521194
 20
20.509273
 40
0.625
 50
180.0
 51
270.0
  0
LINE
  8
APS_GEOMETRY
 10
20.521194
 11
34.271194
 20
19.884273
 21
19.884273
  0
ARC
  8
APS_GEOMETRY
 10
34.271194
 20
19.259273
 40
0.625
 50
0.0
 51
90.0
  0
LINE
  8
APS_GEOMETRY
 10
34.896194
 11
34.896194
 20
19.259273
 21
5.259273
  0
ARC
  8
APS_GEOMETRY
 10
34.021194
 20
5.259273
 40
0.875
 50
270.0
 51
0.0
  0
LINE
  8
APS_GEOMETRY
 10
34.021194
 11
6.521194
 20
4.384273
 21
4.384273
  0
ARC
  8
APS_GEOMETRY
 10
6.521194
 20
5.009273
 40
0.625
 50
180.0
 51
270.0
  0
LINE
  8
APS_GEOMETRY
 10
5.896194
 11
5.896194
 20
5.009273
 21
22.134273
  0
ARC
  8
APS_GEOMETRY
 10
6.521194
 20
22.134273
 40
0.625
 50
90.0
 51
180.0
  0
LINE
  8
APS_GEOMETRY
 10
6.521194
 11
19.271194
 20
22.759273
 21
22.759273
  0
ARC
  8
APS_GEOMETRY
 10
19.271194
 20
22.134273
 40
0.625
 50
0.0
 51
90.0
  0
LINE
  8
CONSTRUCTION
 10
4.45869
 11
36.333698
 20
3.321757
 21
3.321757
  0
LINE
  8
CONSTRUCTION
 10
36.333698
 11
36.333698
 20
3.321757
 21
23.82179
  0
LINE
  8
CONSTRUCTION
 10
36.333698
 11
4.45869
 20
23.82179
 21
23.82179
  0
LINE
  8
CONSTRUCTION
 10
4.45869
 11
4.45869
 20
23.82179
 21
3.321757
  0
LINE
  8
DIMENSIONS
 10
4.45869
 11
4.45869
 20
24.82179
 21
27.408282
  0
LINE
  8
DIMENSIONS
 10
36.333698
 11
36.333698
 20
24.82179
 21
27.408282
  0
LINE
  8
DIMENSIONS
 10
4.45869
 11
15.489101
 20
26.408282
 21
26.408282
  0
LINE
  8
DIMENSIONS
 10
25.303287
 11
36.333698
 20
26.408282
 21
26.408282
  0
LINE
  8
DIMENSIONS
 10
6.45869
 11
4.45869
 20
26.074882
 21
26.408282
  0
LINE
  8
DIMENSIONS
 10
4.45869
 11
6.45869
 20
26.408282
 21
26.741682
  0
LINE
  8
DIMENSIONS
 10
6.45869
 11
6.45869
 20
26.741682
 21
26.074882
  0
LINE
  8
DIMENSIONS
 10
34.333698
 11
36.333698
 20
26.741682
 21
26.408282
  0
LINE
  8
DIMENSIONS
 10
36.333698
 11
34.333698
 20
26.408282
 21
26.074882
  0
LINE
  8
DIMENSIONS
 10
34.333698
 11
34.333698
 20
26.074882
 21
26.741682
  0
LINE
  8
DIMENSIONS
 10
37.333698
 11
40.97678
 20
23.82179
 21
23.82179
  0
LINE
  8
DIMENSIONS
 10
37.333698
 11
40.97678
 20
3.321757
 21
3.321757
  0
LINE
  8
DIMENSIONS
 10
39.97678
 11
39.97678
 20
23.82179
 21
15.078063
  0
LINE
  8
DIMENSIONS
 10
39.97678
 11
39.97678
 20
12.047379
 21
3.321757
  0
LINE
  8
DIMENSIONS
 10
39.64338
 11
39.97678
 20
21.82179
 21
23.82179
  0
LINE
  8
DIMENSIONS
 10
39.97678
 11
40.31018
 20
23.82179
 21
21.82179
  0
LINE
  8
DIMENSIONS
 10
40.31018
 11
39.64338
 20
21.82179
 21
21.82179
  0
LINE
  8
DIMENSIONS
 10
40.31018
 11
39.97678
 20
5.321757
 21
3.321757
  0
LINE
  8
DIMENSIONS
 10
39.97678
 11
39.64338
 20
3.321757
 21
5.321757
  0
LINE
  8
DIMENSIONS
 10
39.64338
 11
40.31018
 20
5.321757
 21
5.321757
  0
LINE
  8
DIMENSIONS
 10
5.896194
 11
18.320376
 20
6.144758
 21
6.144758
  0
LINE
  8
DIMENSIONS
 10
22.472012
 11
34.896194
 20
6.144758
 21
6.144758
  0
LINE
  8
DIMENSIONS
 10
7.896194
 11
5.896194
 20
5.811358
 21
6.144758
  0
LINE
  8
DIMENSIONS
 10
5.896194
 11
7.896194
 20
6.144758
 21
6.478158
  0
LINE
  8
DIMENSIONS
 10
7.896194
 11
7.896194
 20
6.478158
 21
5.811358
  0
LINE
  8
DIMENSIONS
 10
32.896194
 11
34.896194
 20
6.478158
 21
6.144758
  0
LINE
  8
DIMENSIONS
 10
34.896194
 11
32.896194
 20
6.144758
 21
5.811358
  0
LINE
  8
DIMENSIONS
 10
32.896194
 11
32.896194
 20
5.811358
 21
6.478158
  0
LINE
  8
DIMENSIONS
 10
33.021194
 11
27.926401
 20
4.384273
 21
4.384273
  0
LINE
  8
DIMENSIONS
 10
28.926401
 11
28.926401
 20
19.884273
 21
13.63503
  0
LINE
  8
DIMENSIONS
 10
28.926401
 11
28.926401
 20
10.618047
 21
4.384273
  0
LINE
  8
DIMENSIONS
 10
28.593001
 11
28.926401
 20
17.884273
 21
19.884273
  0
LINE
  8
DIMENSIONS
 10
28.926401
 11
29.259801
 20
19.884273
 21
17.884273
  0
LINE
  8
DIMENSIONS
 10
29.259801
 11
28.593001
 20
17.884273
 21
17.884273
  0
LINE
  8
DIMENSIONS
 10
29.259801
 11
28.926401
 20
6.384273
 21
4.384273
  0
LINE
  8
DIMENSIONS
 10
28.926401
 11
28.593001
 20
4.384273
 21
6.384273
  0
LINE
  8
DIMENSIONS
 10
28.593001
 11
29.259801
 20
6.384273
 21
6.384273
  0
LINE
  8
DIMENSIONS
 10
7.521194
 11
12.351849
 20
22.759273
 21
22.759273
  0
LINE
  8
DIMENSIONS
 10
7.521194
 11
12.351849
 20
4.384273
 21
4.384273
  0
LINE
  8
DIMENSIONS
 10
11.351849
 11
11.351849
 20
22.759273
 21
15.078068
  0
LINE
  8
DIMENSIONS
 10
11.351849
 11
11.351849
 20
12.052778
 21
4.384273
  0
LINE
  8
DIMENSIONS
 10
11.018449
 11
11.351849
 20
20.759273
 21
22.759273
  0
LINE
  8
DIMENSIONS
 10
11.351849
 11
11.685249
 20
22.759273
 21
20.759273
  0
LINE
  8
DIMENSIONS
 10
11.685249
 11
11.018449
 20
20.759273
 21
20.759273
  0
LINE
  8
DIMENSIONS
 10
11.685249
 11
11.351849
 20
6.384273
 21
4.384273
  0
LINE
  8
DIMENSIONS
 10
11.351849
 11
11.018449
 20
4.384273
 21
6.384273
  0
LINE
  8
DIMENSIONS
 10
11.018449
 11
11.685249
 20
6.384273
 21
6.384273
  0
TEXT
  8
DIMENSIONS
 10
37.001476
 20
12.571773
 30
0.0
 40
2.0
 50
0.0
  1
20.5
  0
TEXT
  8
DIMENSIONS
 10
15.935513
 20
25.408282
 30
0.0
 40
2.0
 50
0.0
  1
31.875
  0
TEXT
  8
TEXT
 10
21.385874
 20
30.934949
 30
0.0
 40
1.5
 50
0.0
  1
AS 331
  0
TEXT
  8
TEXT
 10
21.385874
 20
28.684949
 30
0.0
 40
1.5
 50
0.0
  1
Undermount Stainless Steel
  0
TEXT
  8
DIMENSIONS
 10
18.820377
 20
5.144758
 30
0.0
 40
2.0
 50
0.0
  1
29
  0
TEXT
  8
DIMENSIONS
 10
26.334971
 20
11.134273
 30
0.0
 40
2.0
 50
0.0
  1
15.5
  0
TEXT
  8
DIMENSIONS
 10
6.917962
 20
12.571773
 30
0.0
 40
2.0
 50
0.0
  1
18.375
  0
ENDSEC
  0
EOF
