  0
SECTION
  2
ENTITIES
  0
LINE
  8
APS_GEOMETRY
 10
44.314806
 11
59.002306
 20
1.5
 21
1.5
  0
ARC
  8
APS_GEOMETRY
 10
59.002306
 20
2.125
 40
0.625
 50
270.0
 51
0.0
  0
LINE
  8
APS_GEOMETRY
 10
59.627306
 11
59.627306
 20
2.125
 21
14.8125
  0
ARC
  8
APS_GEOMETRY
 10
59.002306
 20
14.8125
 40
0.625
 50
0.0
 51
90.0
  0
LINE
  8
APS_GEOMETRY
 10
59.002306
 11
44.314806
 20
15.4375
 21
15.4375
  0
ARC
  8
APS_GEOMETRY
 10
44.314806
 20
14.8125
 40
0.625
 50
90.0
 51
180.0
  0
LINE
  8
APS_GEOMETRY
 10
43.689806
 11
43.689806
 20
14.8125
 21
2.125
  0
ARC
  8
APS_GEOMETRY
 10
44.314806
 20
2.125
 40
0.625
 50
180.0
 51
270.0
  0
LINE
  8
CONSTRUCTION
 10
42.658569
 11
60.658543
 20
0.468734
 21
0.468734
  0
LINE
  8
CONSTRUCTION
 10
60.658543
 11
60.658543
 20
0.468734
 21
16.468766
  0
LINE
  8
CONSTRUCTION
 10
60.658543
 11
42.658569
 20
16.468766
 21
16.468766
  0
LINE
  8
CONSTRUCTION
 10
42.658569
 11
42.658569
 20
16.468766
 21
0.468734
  0
LINE
  8
DIMENSIONS
 10
42.658569
 11
49.8851
 20
17.93097
 21
17.93097
  0
LINE
  8
DIMENSIONS
 10
53.432012
 11
60.658543
 20
17.93097
 21
17.93097
  0
LINE
  8
DIMENSIONS
 10
44.658569
 11
42.658569
 20
17.59757
 21
17.93097
  0
LINE
  8
DIMENSIONS
 10
42.658569
 11
44.658569
 20
17.93097
 21
18.26437
  0
LINE
  8
DIMENSIONS
 10
44.658569
 11
44.658569
 20
18.26437
 21
17.59757
  0
LINE
  8
DIMENSIONS
 10
58.658543
 11
60.658543
 20
18.26437
 21
17.93097
  0
LINE
  8
DIMENSIONS
 10
60.658543
 11
58.658543
 20
17.93097
 21
17.59757
  0
LINE
  8
DIMENSIONS
 10
58.658543
 11
58.658543
 20
17.59757
 21
18.26437
  0
LINE
  8
DIMENSIONS
 10
62.628562
 11
62.628562
 20
16.468766
 21
9.971793
  0
LINE
  8
DIMENSIONS
 10
62.628562
 11
62.628562
 20
6.947463
 21
0.468734
  0
LINE
  8
DIMENSIONS
 10
62.295162
 11
62.628562
 20
14.468766
 21
16.468766
  0
LINE
  8
DIMENSIONS
 10
62.628562
 11
62.961962
 20
16.468766
 21
14.468766
  0
LINE
  8
DIMENSIONS
 10
62.961962
 11
62.295162
 20
14.468766
 21
14.468766
  0
LINE
  8
DIMENSIONS
 10
62.961962
 11
62.628562
 20
2.468734
 21
0.468734
  0
LINE
  8
DIMENSIONS
 10
62.628562
 11
62.295162
 20
0.468734
 21
2.468734
  0
LINE
  8
DIMENSIONS
 10
62.295162
 11
62.961962
 20
2.468734
 21
2.468734
  0
LINE
  8
DIMENSIONS
 10
43.689806
 11
43.689806
 20
1.125
 21
-2.944966
  0
LINE
  8
DIMENSIONS
 10
59.627306
 11
59.627306
 20
1.125
 21
-2.944966
  0
LINE
  8
DIMENSIONS
 10
43.689806
 11
46.737724
 20
-1.944966
 21
-1.944966
  0
LINE
  8
DIMENSIONS
 10
56.579388
 11
59.627306
 20
-1.944966
 21
-1.944966
  0
LINE
  8
DIMENSIONS
 10
45.689806
 11
43.689806
 20
-2.278366
 21
-1.944966
  0
LINE
  8
DIMENSIONS
 10
43.689806
 11
45.689806
 20
-1.944966
 21
-1.611566
  0
LINE
  8
DIMENSIONS
 10
45.689806
 11
45.689806
 20
-1.611566
 21
-2.278366
  0
LINE
  8
DIMENSIONS
 10
57.627306
 11
59.627306
 20
-1.611566
 21
-1.944966
  0
LINE
  8
DIMENSIONS
 10
59.627306
 11
57.627306
 20
-1.944966
 21
-2.278366
  0
LINE
  8
DIMENSIONS
 10
57.627306
 11
57.627306
 20
-2.278366
 21
-1.611566
  0
LINE
  8
DIMENSIONS
 10
43.314806
 11
35.938486
 20
15.4375
 21
15.4375
  0
LINE
  8
DIMENSIONS
 10
43.314806
 11
35.938486
 20
1.5
 21
1.5
  0
LINE
  8
DIMENSIONS
 10
36.938486
 11
36.938486
 20
15.4375
 21
9.975044
  0
LINE
  8
DIMENSIONS
 10
36.938486
 11
36.938486
 20
6.943946
 21
1.5
  0
LINE
  8
DIMENSIONS
 10
36.605086
 11
36.938486
 20
13.4375
 21
15.4375
  0
LINE
  8
DIMENSIONS
 10
36.938486
 11
37.271886
 20
15.4375
 21
13.4375
  0
LINE
  8
DIMENSIONS
 10
37.271886
 11
36.605086
 20
13.4375
 21
13.4375
  0
LINE
  8
DIMENSIONS
 10
37.271886
 11
36.938486
 20
3.5
 21
1.5
  0
LINE
  8
DIMENSIONS
 10
36.938486
 11
36.605086
 20
1.5
 21
3.5
  0
LINE
  8
DIMENSIONS
 10
36.605086
 11
37.271886
 20
3.5
 21
3.5
  0
TEXT
  8
DIMENSIONS
 10
61.369046
 20
7.46875
 30
0.0
 40
2.0
 50
0.0
  1
16
  0
TEXT
  8
DIMENSIONS
 10
50.3851
 20
16.93097
 30
0.0
 40
2.0
 50
0.0
  1
18
  0
TEXT
  8
TEXT
 10
51.14693
 20
24.692484
 30
0.0
 40
1.5
 50
0.0
  1
AS 339
  0
TEXT
  8
TEXT
 10
51.14693
 20
22.442484
 30
0.0
 40
1.5
 50
0.0
  1
Undermount Stainless Steel
  0
TEXT
  8
TEXT
 10
51.14693
 20
20.192484
 30
0.0
 40
1.5
 50
0.0
  1
Cutout is flush to sink rim
  0
TEXT
  8
DIMENSIONS
 10
47.237724
 20
-2.944966
 30
0.0
 40
2.0
 50
0.0
  1
15.938
  0
TEXT
  8
DIMENSIONS
 10
32.521127
 20
7.46875
 30
0.0
 40
2.0
 50
0.0
  1
1
  0
TEXT
  8
DIMENSIONS
 10
33.607378
 20
7.46875
 30
0.0
 40
2.0
 50
0.0
  1
3.938
  0
ENDSEC
  0
EOF
