  0
SECTION
  2
ENTITIES
  0
LINE
  8
APS_GEOMETRY
 10
0.1
 11
15.3375
 20
0.0
 21
0.0
  0
ARC
  8
APS_GEOMETRY
 10
15.3375
 20
0.1
 40
0.1
 50
270.0
 51
0.0
  0
LINE
  8
APS_GEOMETRY
 10
15.4375
 11
15.4375
 20
0.1
 21
13.3375
  0
ARC
  8
APS_GEOMETRY
 10
15.3375
 20
13.3375
 40
0.1
 50
0.0
 51
90.0
  0
LINE
  8
APS_GEOMETRY
 10
15.3375
 11
0.1
 20
13.4375
 21
13.4375
  0
ARC
  8
APS_GEOMETRY
 10
0.1
 20
13.3375
 40
0.1
 50
90.0
 51
180.0
  0
LINE
  8
APS_GEOMETRY
 10
0.0
 11
0.0
 20
13.3375
 21
0.1
  0
ARC
  8
APS_GEOMETRY
 10
0.1
 20
0.1
 40
0.1
 50
180.0
 51
270.0
  0
LINE
  8
APS_GEOMETRY
 10
-0.5
 11
15.9375
 20
-1.0
 21
-1.0
  0
ARC
  8
APS_GEOMETRY
 10
15.9375
 20
-0.5
 40
0.5
 50
270.0
 51
0.0
  0
LINE
  8
APS_GEOMETRY
 10
16.4375
 11
16.4375
 20
-0.5
 21
13.9375
  0
ARC
  8
APS_GEOMETRY
 10
15.9375
 20
13.9375
 40
0.5
 50
0.0
 51
90.0
  0
LINE
  8
APS_GEOMETRY
 10
15.9375
 11
-0.5
 20
14.4375
 21
14.4375
  0
ARC
  8
APS_GEOMETRY
 10
-0.5
 20
13.9375
 40
0.5
 50
90.0
 51
180.0
  0
LINE
  8
APS_GEOMETRY
 10
-1.0
 11
-1.0
 20
13.9375
 21
-0.5
  0
ARC
  8
APS_GEOMETRY
 10
-0.5
 20
-0.5
 40
0.5
 50
180.0
 51
270.0
  0
LINE
  8
DIMENSIONS
 10
0.0
 11
0.0
 20
-0.9
 21
-3.976489
  0
LINE
  8
DIMENSIONS
 10
15.4375
 11
15.4375
 20
-0.9
 21
-3.976489
  0
LINE
  8
DIMENSIONS
 10
0.0
 11
2.67058
 20
-2.976489
 21
-2.976489
  0
LINE
  8
DIMENSIONS
 10
12.76692
 11
15.4375
 20
-2.976489
 21
-2.976489
  0
LINE
  8
DIMENSIONS
 10
2.0
 11
0.0
 20
-3.309889
 21
-2.976489
  0
LINE
  8
DIMENSIONS
 10
0.0
 11
2.0
 20
-2.976489
 21
-2.643089
  0
LINE
  8
DIMENSIONS
 10
2.0
 11
2.0
 20
-2.643089
 21
-3.309889
  0
LINE
  8
DIMENSIONS
 10
13.4375
 11
15.4375
 20
-2.643089
 21
-2.976489
  0
LINE
  8
DIMENSIONS
 10
15.4375
 11
13.4375
 20
-2.976489
 21
-3.309889
  0
LINE
  8
DIMENSIONS
 10
13.4375
 11
13.4375
 20
-3.309889
 21
-2.643089
  0
LINE
  8
DIMENSIONS
 10
14.3375
 11
7.206768
 20
13.4375
 21
13.4375
  0
LINE
  8
DIMENSIONS
 10
14.3375
 11
7.206768
 20
0.0
 21
0.0
  0
LINE
  8
DIMENSIONS
 10
8.206768
 11
8.206768
 20
13.4375
 21
8.225044
  0
LINE
  8
DIMENSIONS
 10
8.206768
 11
8.206768
 20
5.199754
 21
0.0
  0
LINE
  8
DIMENSIONS
 10
7.873368
 11
8.206768
 20
11.4375
 21
13.4375
  0
LINE
  8
DIMENSIONS
 10
8.206768
 11
8.540168
 20
13.4375
 21
11.4375
  0
LINE
  8
DIMENSIONS
 10
8.540168
 11
7.873368
 20
11.4375
 21
11.4375
  0
LINE
  8
DIMENSIONS
 10
8.540168
 11
8.206768
 20
2.0
 21
0.0
  0
LINE
  8
DIMENSIONS
 10
8.206768
 11
7.873368
 20
0.0
 21
2.0
  0
LINE
  8
DIMENSIONS
 10
7.873368
 11
8.540168
 20
2.0
 21
2.0
  0
LINE
  8
DIMENSIONS
 10
0.1
 11
0.1
 20
13.0041
 21
13.6709
  0
LINE
  8
DIMENSIONS
 10
-0.2334
 11
0.4334
 20
13.3375
 21
13.3375
  0
LINE
  8
DIMENSIONS
 10
0.1
 11
-0.780425
 20
13.3375
 21
15.770006
  0
LINE
  8
DIMENSIONS
 10
-0.780425
 11
0.308859
 20
15.770006
 21
15.770006
  0
LINE
  8
DIMENSIONS
 10
-0.301207
 11
0.065966
 20
15.425607
 21
13.43153
  0
LINE
  8
DIMENSIONS
 10
0.065966
 11
-0.928201
 20
13.43153
 21
15.198671
  0
LINE
  8
DIMENSIONS
 10
-0.928201
 11
-0.301207
 20
15.198671
 21
15.425607
  0
LINE
  8
DIMENSIONS
 10
16.9375
 11
22.444523
 20
-1.0
 21
-1.0
  0
LINE
  8
DIMENSIONS
 10
16.9375
 11
22.444523
 20
14.4375
 21
14.4375
  0
LINE
  8
DIMENSIONS
 10
21.444523
 11
21.444523
 20
-1.0
 21
5.199754
  0
LINE
  8
DIMENSIONS
 10
21.444523
 11
21.444523
 20
8.225044
 21
14.4375
  0
LINE
  8
DIMENSIONS
 10
21.777923
 11
21.444523
 20
1.0
 21
-1.0
  0
LINE
  8
DIMENSIONS
 10
21.444523
 11
21.111123
 20
-1.0
 21
1.0
  0
LINE
  8
DIMENSIONS
 10
21.111123
 11
21.777923
 20
1.0
 21
1.0
  0
LINE
  8
DIMENSIONS
 10
21.111123
 11
21.444523
 20
12.4375
 21
14.4375
  0
LINE
  8
DIMENSIONS
 10
21.444523
 11
21.777923
 20
14.4375
 21
12.4375
  0
LINE
  8
DIMENSIONS
 10
21.777923
 11
21.111123
 20
12.4375
 21
12.4375
  0
LINE
  8
DIMENSIONS
 10
16.4375
 11
16.4375
 20
0.5
 21
21.453494
  0
LINE
  8
DIMENSIONS
 10
-1.0
 11
-1.0
 20
14.9375
 21
21.453494
  0
LINE
  8
DIMENSIONS
 10
16.4375
 11
12.766715
 20
20.453494
 21
20.453494
  0
LINE
  8
DIMENSIONS
 10
2.670785
 11
-1.0
 20
20.453494
 21
20.453494
  0
LINE
  8
DIMENSIONS
 10
14.4375
 11
16.4375
 20
20.786894
 21
20.453494
  0
LINE
  8
DIMENSIONS
 10
16.4375
 11
14.4375
 20
20.453494
 21
20.120094
  0
LINE
  8
DIMENSIONS
 10
14.4375
 11
14.4375
 20
20.120094
 21
20.786894
  0
LINE
  8
DIMENSIONS
 10
1.0
 11
-1.0
 20
20.120094
 21
20.453494
  0
LINE
  8
DIMENSIONS
 10
-1.0
 11
1.0
 20
20.453494
 21
20.786894
  0
LINE
  8
DIMENSIONS
 10
1.0
 11
1.0
 20
20.786894
 21
20.120094
  0
LINE
  8
APS_GEOMETRY
 10
-0.451276
 11
1.993169
 20
36.238858
 21
36.238858
  0
LINE
  8
APS_GEOMETRY
 10
-0.940165
 11
0.615391
 20
35.030785
 21
39.030785
  0
LINE
  8
APS_GEOMETRY
 10
0.615391
 11
0.970946
 20
39.030785
 21
39.030785
  0
LINE
  8
APS_GEOMETRY
 10
0.970946
 11
2.437613
 20
39.030785
 21
35.030785
  0
ARC
  8
APS_GEOMETRY
 10
4.148485
 20
37.457392
 40
1.644178
 50
42.9037
 51
122.5462
  0
ARC
  8
APS_GEOMETRY
 10
3.726433
 20
38.139484
 40
0.842222
 50
123.306702
 51
253.425563
  0
LINE
  8
APS_GEOMETRY
 10
3.48618
 11
4.819507
 20
37.332256
 21
36.887792
  0
ARC
  8
APS_GEOMETRY
 10
4.548035
 20
36.026589
 40
0.902978
 50
299.837943
 51
72.503854
  0
ARC
  8
APS_GEOMETRY
 10
4.130681
 20
36.745934
 40
1.734622
 50
240.02251
 51
299.973977
  0
ARC
  8
APS_GEOMETRY
 10
3.738244
 20
36.07337
 40
0.955956
 50
209.759272
 51
240.255342
  0
LINE
  8
APS_GEOMETRY
 10
6.22869
 11
7.42869
 20
36.791385
 21
36.791385
  0
ARC
  8
APS_GEOMETRY
 10
9.811507
 20
37.727271
 40
1.3096
 50
38.687092
 51
141.311843
  0
ARC
  8
APS_GEOMETRY
 10
10.681375
 20
37.01256
 40
2.435378
 50
140.979262
 51
219.021887
  0
ARC
  8
APS_GEOMETRY
 10
9.811537
 20
36.297812
 40
1.3096
 50
218.688216
 51
321.311676
  0
ARC
  8
APS_GEOMETRY
 10
10.011136
 20
36.145872
 40
1.058844
 50
320.977916
 51
39.022283
  0
ARC
  8
APS_GEOMETRY
 10
9.744851
 20
35.940547
 40
1.395022
 50
38.687897
 51
141.311964
  0
ARC
  8
APS_GEOMETRY
 10
9.650952
 20
36.002887
 40
1.2828
 50
140.8638
 51
169.5859
  0
LINE
  8
APS_GEOMETRY
 10
11.828398
 11
12.514648
 20
35.030785
 21
35.030785
  0
LINE
  8
APS_GEOMETRY
 10
12.514648
 11
13.200899
 20
35.030785
 21
35.030785
  0
LINE
  8
APS_GEOMETRY
 10
12.514648
 11
12.514648
 20
35.030785
 21
39.030785
  0
LINE
  8
APS_GEOMETRY
 10
12.514648
 11
11.828398
 20
39.030785
 21
38.344534
  0
LINE
  8
APS_GEOMETRY
 10
17.45387
 11
14.120537
 20
36.36549
 21
36.36549
  0
LINE
  8
APS_GEOMETRY
 10
14.120537
 11
14.120537
 20
36.36549
 21
36.587712
  0
LINE
  8
APS_GEOMETRY
 10
14.120537
 11
16.342759
 20
36.587712
 21
39.032157
  0
LINE
  8
APS_GEOMETRY
 10
16.342759
 11
16.564981
 20
39.032157
 21
39.032157
  0
LINE
  8
APS_GEOMETRY
 10
16.564981
 11
16.564981
 20
39.032157
 21
35.032156
  0
LINE
  8
APS_GEOMETRY
 10
-0.830021
 11
2.058868
 20
33.032886
 21
33.032886
  0
LINE
  8
APS_GEOMETRY
 10
2.058868
 11
2.058842
 20
33.032886
 21
32.810675
  0
ARC
  8
APS_GEOMETRY
 10
4.786379
 20
29.166664
 40
4.551734
 50
126.8148
 51
181.6842
  0
LINE
  8
APS_GEOMETRY
 10
2.772999
 11
3.972999
 20
30.791385
 21
30.791385
  0
ARC
  8
APS_GEOMETRY
 10
6.139168
 20
30.497808
 40
1.492533
 50
202.7274
 51
247.2726
  0
ARC
  8
APS_GEOMETRY
 10
6.162525
 20
30.525133
 40
1.5268
 50
246.860287
 51
293.140726
  0
ARC
  8
APS_GEOMETRY
 10
6.194857
 20
30.463636
 40
1.457556
 50
292.922067
 51
357.893283
  0
ARC
  8
APS_GEOMETRY
 10
6.33921
 20
30.456031
 40
1.313022
 50
357.993348
 51
71.191207
  0
ARC
  8
APS_GEOMETRY
 10
6.162457
 20
29.934267
 40
1.863911
 50
71.219129
 51
108.775441
  0
ARC
  8
APS_GEOMETRY
 10
6.044457
 20
30.253993
 40
1.523245
 50
108.443904
 51
138.941081
  0
LINE
  8
APS_GEOMETRY
 10
4.895878
 11
5.20699
 20
31.254513
 21
33.032297
  0
LINE
  8
APS_GEOMETRY
 10
5.20699
 11
7.20699
 20
33.032297
 21
33.032297
  0
LINE
  8
APS_GEOMETRY
 10
8.462707
 11
9.662707
 20
30.791385
 21
30.791385
  0
LINE
  8
APS_GEOMETRY
 10
10.438432
 11
11.124683
 20
29.030785
 21
29.030785
  0
LINE
  8
APS_GEOMETRY
 10
11.124683
 11
11.810933
 20
29.030785
 21
29.030785
  0
LINE
  8
APS_GEOMETRY
 10
11.124683
 11
11.124683
 20
29.030785
 21
33.030785
  0
LINE
  8
APS_GEOMETRY
 10
11.124683
 11
10.438432
 20
33.030785
 21
32.344534
  0
ARC
  8
APS_GEOMETRY
 10
13.858746
 20
32.681245
 40
1.733156
 50
295.9876
 51
313.9964
  0
ARC
  8
APS_GEOMETRY
 10
14.463215
 20
32.056643
 40
0.863956
 50
313.930836
 51
46.072395
  0
ARC
  8
APS_GEOMETRY
 10
14.084799
 20
31.506193
 40
1.526845
 50
50.178678
 51
129.819556
  0
ARC
  8
APS_GEOMETRY
 10
13.613422
 20
32.078919
 40
0.785111
 50
130.163237
 51
229.839346
  0
ARC
  8
APS_GEOMETRY
 10
13.982214
 20
32.519294
 40
1.359511
 50
229.930688
 51
276.210455
  0
ARC
  8
APS_GEOMETRY
 10
14.276427
 20
29.816236
 40
1.359511
 50
49.934494
 51
96.213281
  0
ARC
  8
APS_GEOMETRY
 10
14.592212
 20
30.101111
 40
0.940044
 50
306.509514
 51
53.490801
  0
ARC
  8
APS_GEOMETRY
 10
14.084843
 20
30.78186
 40
1.789067
 50
233.400655
 51
306.598732
  0
ARC
  8
APS_GEOMETRY
 10
13.577466
 20
30.101118
 40
0.940044
 50
126.510158
 51
233.489989
  0
ARC
  8
APS_GEOMETRY
 10
14.734749
 20
28.574783
 40
2.855467
 50
112.535105
 51
126.952643
  0
TEXT
  8
DIMENSIONS
 10
3.17058
 20
-3.976489
 30
0.0
 40
2.0
 50
0.0
  1
15.438
  0
TEXT
  8
DIMENSIONS
 10
3.662072
 20
5.71875
 30
0.0
 40
2.0
 50
0.0
  1
13.438
  0
TEXT
  8
DIMENSIONS
 10
0.808859
 20
14.770006
 30
0.0
 40
2.0
 50
0.0
  1
R0.1
  0
TEXT
  8
DIMENSIONS
 10
16.896353
 20
5.71875
 30
0.0
 40
2.0
 50
0.0
  1
15.438
  0
TEXT
  8
DIMENSIONS
 10
3.170785
 20
19.453494
 30
0.0
 40
2.0
 50
0.0
  1
17.438
  0
ENDSEC
  0
EOF
