  0
SECTION
  2
ENTITIES
  0
LINE
  8
APS_GEOMETRY
 10
0.375
 11
29.75
 20
0.0
 21
0.0
  0
ARC
  8
APS_GEOMETRY
 10
29.75
 20
0.375
 40
0.375
 50
270.0
 51
0.0
  0
LINE
  8
APS_GEOMETRY
 10
30.125
 11
30.125
 20
0.375
 21
16.375
  0
ARC
  8
APS_GEOMETRY
 10
29.75
 20
16.375
 40
0.375
 50
0.0
 51
90.0
  0
LINE
  8
APS_GEOMETRY
 10
29.75
 11
0.375
 20
16.75
 21
16.75
  0
ARC
  8
APS_GEOMETRY
 10
0.375
 20
16.375
 40
0.375
 50
90.0
 51
180.0
  0
LINE
  8
APS_GEOMETRY
 10
0.0
 11
0.0
 20
16.375
 21
0.375
  0
ARC
  8
APS_GEOMETRY
 10
0.375
 20
0.375
 40
0.375
 50
180.0
 51
270.0
  0
LINE
  8
APS_GEOMETRY
 10
-0.9375
 11
-0.9375
 20
-0.5625
 21
17.3125
  0
ARC
  8
APS_GEOMETRY
 10
-0.5625
 20
17.3125
 40
0.375
 50
90.0
 51
180.0
  0
LINE
  8
APS_GEOMETRY
 10
-0.5625
 11
30.6875
 20
17.6875
 21
17.6875
  0
ARC
  8
APS_GEOMETRY
 10
30.6875
 20
17.3125
 40
0.375
 50
0.0
 51
90.0
  0
LINE
  8
APS_GEOMETRY
 10
31.0625
 11
31.0625
 20
17.3125
 21
-0.5625
  0
ARC
  8
APS_GEOMETRY
 10
30.6875
 20
-0.5625
 40
0.375
 50
270.0
 51
0.0
  0
LINE
  8
APS_GEOMETRY
 10
30.6875
 11
-0.5625
 20
-0.9375
 21
-0.9375
  0
ARC
  8
APS_GEOMETRY
 10
-0.5625
 20
-0.5625
 40
0.375
 50
180.0
 51
270.0
  0
LINE
  8
APS_GEOMETRY
 10
0.75
 11
29.375
 20
0.375
 21
0.375
  0
ARC
  8
APS_GEOMETRY
 10
29.375
 20
0.75
 40
0.375
 50
270.0
 51
0.0
  0
LINE
  8
APS_GEOMETRY
 10
29.75
 11
29.75
 20
0.75
 21
16.0
  0
ARC
  8
APS_GEOMETRY
 10
29.375
 20
16.0
 40
0.375
 50
0.0
 51
90.0
  0
LINE
  8
APS_GEOMETRY
 10
29.375
 11
0.75
 20
16.375
 21
16.375
  0
ARC
  8
APS_GEOMETRY
 10
0.75
 20
16.0
 40
0.375
 50
90.0
 51
180.0
  0
LINE
  8
APS_GEOMETRY
 10
0.375
 11
0.375
 20
16.0
 21
0.75
  0
ARC
  8
APS_GEOMETRY
 10
0.75
 20
0.75
 40
0.375
 50
180.0
 51
270.0
  0
LINE
  8
APS_GEOMETRY
 10
15.0625
 11
15.0625
 20
16.75
 21
20.479472
  0
LINE
  8
APS_GEOMETRY
 10
29.75
 11
34.379091
 20
8.375
 21
8.375
  0
LINE
  8
DIMENSIONS
 10
-1.5625
 11
-6.515266
 20
-0.9375
 21
-0.9375
  0
LINE
  8
DIMENSIONS
 10
-1.5625
 11
-6.515266
 20
17.6875
 21
17.6875
  0
LINE
  8
DIMENSIONS
 10
-5.515266
 11
-5.515266
 20
-0.9375
 21
6.853713
  0
LINE
  8
DIMENSIONS
 10
-5.515266
 11
-5.515266
 20
9.881289
 21
17.6875
  0
LINE
  8
DIMENSIONS
 10
-5.181866
 11
-5.515266
 20
1.0625
 21
-0.9375
  0
LINE
  8
DIMENSIONS
 10
-5.515266
 11
-5.848666
 20
-0.9375
 21
1.0625
  0
LINE
  8
DIMENSIONS
 10
-5.848666
 11
-5.181866
 20
1.0625
 21
1.0625
  0
LINE
  8
DIMENSIONS
 10
-5.848666
 11
-5.515266
 20
15.6875
 21
17.6875
  0
LINE
  8
DIMENSIONS
 10
-5.515266
 11
-5.181866
 20
17.6875
 21
15.6875
  0
LINE
  8
DIMENSIONS
 10
-5.181866
 11
-5.848666
 20
15.6875
 21
15.6875
  0
LINE
  8
DIMENSIONS
 10
-0.9375
 11
-0.9375
 20
-1.5625
 21
-3.773364
  0
LINE
  8
DIMENSIONS
 10
31.0625
 11
31.0625
 20
-1.5625
 21
-3.773364
  0
LINE
  8
DIMENSIONS
 10
-0.9375
 11
13.003675
 20
-2.773364
 21
-2.773364
  0
LINE
  8
DIMENSIONS
 10
17.121325
 11
31.0625
 20
-2.773364
 21
-2.773364
  0
LINE
  8
DIMENSIONS
 10
1.0625
 11
-0.9375
 20
-3.106764
 21
-2.773364
  0
LINE
  8
DIMENSIONS
 10
-0.9375
 11
1.0625
 20
-2.773364
 21
-2.439964
  0
LINE
  8
DIMENSIONS
 10
1.0625
 11
1.0625
 20
-2.439964
 21
-3.106764
  0
LINE
  8
DIMENSIONS
 10
29.0625
 11
31.0625
 20
-2.439964
 21
-2.773364
  0
LINE
  8
DIMENSIONS
 10
31.0625
 11
29.0625
 20
-2.773364
 21
-3.106764
  0
LINE
  8
DIMENSIONS
 10
29.0625
 11
29.0625
 20
-3.106764
 21
-2.439964
  0
LINE
  8
DIMENSIONS
 10
1.75
 11
3.951589
 20
16.375
 21
16.375
  0
LINE
  8
DIMENSIONS
 10
1.75
 11
3.951589
 20
0.375
 21
0.375
  0
LINE
  8
DIMENSIONS
 10
2.951589
 11
2.951589
 20
16.375
 21
9.878043
  0
LINE
  8
DIMENSIONS
 10
2.951589
 11
2.951589
 20
6.853713
 21
0.375
  0
LINE
  8
DIMENSIONS
 10
2.618189
 11
2.951589
 20
14.375
 21
16.375
  0
LINE
  8
DIMENSIONS
 10
2.951589
 11
3.284989
 20
16.375
 21
14.375
  0
LINE
  8
DIMENSIONS
 10
3.284989
 11
2.618189
 20
14.375
 21
14.375
  0
LINE
  8
DIMENSIONS
 10
3.284989
 11
2.951589
 20
2.375
 21
0.375
  0
LINE
  8
DIMENSIONS
 10
2.951589
 11
2.618189
 20
0.375
 21
2.375
  0
LINE
  8
DIMENSIONS
 10
2.618189
 11
3.284989
 20
2.375
 21
2.375
  0
LINE
  8
DIMENSIONS
 10
0.375
 11
0.375
 20
15.0
 21
12.742679
  0
LINE
  8
DIMENSIONS
 10
29.75
 11
29.75
 20
15.0
 21
12.742679
  0
LINE
  8
DIMENSIONS
 10
0.375
 11
9.822785
 20
13.742679
 21
13.742679
  0
LINE
  8
DIMENSIONS
 10
20.302215
 11
29.75
 20
13.742679
 21
13.742679
  0
LINE
  8
DIMENSIONS
 10
2.375
 11
0.375
 20
13.409279
 21
13.742679
  0
LINE
  8
DIMENSIONS
 10
0.375
 11
2.375
 20
13.742679
 21
14.076079
  0
LINE
  8
DIMENSIONS
 10
2.375
 11
2.375
 20
14.076079
 21
13.409279
  0
LINE
  8
DIMENSIONS
 10
27.75
 11
29.75
 20
14.076079
 21
13.742679
  0
LINE
  8
DIMENSIONS
 10
29.75
 11
27.75
 20
13.742679
 21
13.409279
  0
LINE
  8
DIMENSIONS
 10
27.75
 11
27.75
 20
13.409279
 21
14.076079
  0
LINE
  8
DIMENSIONS
 10
0.0
 11
0.0
 20
17.375
 21
20.302153
  0
LINE
  8
DIMENSIONS
 10
30.125
 11
30.125
 20
17.375
 21
20.302153
  0
LINE
  8
DIMENSIONS
 10
0.0
 11
10.151911
 20
19.302153
 21
19.302153
  0
LINE
  8
DIMENSIONS
 10
19.973089
 11
30.125
 20
19.302153
 21
19.302153
  0
LINE
  8
DIMENSIONS
 10
2.0
 11
0.0
 20
18.968753
 21
19.302153
  0
LINE
  8
DIMENSIONS
 10
0.0
 11
2.0
 20
19.302153
 21
19.635553
  0
LINE
  8
DIMENSIONS
 10
2.0
 11
2.0
 20
19.635553
 21
18.968753
  0
LINE
  8
DIMENSIONS
 10
28.125
 11
30.125
 20
19.635553
 21
19.302153
  0
LINE
  8
DIMENSIONS
 10
30.125
 11
28.125
 20
19.302153
 21
18.968753
  0
LINE
  8
DIMENSIONS
 10
28.125
 11
28.125
 20
18.968753
 21
19.635553
  0
LINE
  8
DIMENSIONS
 10
28.75
 11
23.515608
 20
0.0
 21
0.0
  0
LINE
  8
DIMENSIONS
 10
28.75
 11
23.515608
 20
16.75
 21
16.75
  0
LINE
  8
DIMENSIONS
 10
24.515608
 11
24.515608
 20
0.0
 21
6.853713
  0
LINE
  8
DIMENSIONS
 10
24.515608
 11
24.515608
 20
9.878043
 21
16.75
  0
LINE
  8
DIMENSIONS
 10
24.849008
 11
24.515608
 20
2.0
 21
0.0
  0
LINE
  8
DIMENSIONS
 10
24.515608
 11
24.182208
 20
0.0
 21
2.0
  0
LINE
  8
DIMENSIONS
 10
24.182208
 11
24.849008
 20
2.0
 21
2.0
  0
LINE
  8
DIMENSIONS
 10
24.182208
 11
24.515608
 20
14.75
 21
16.75
  0
LINE
  8
DIMENSIONS
 10
24.515608
 11
24.849008
 20
16.75
 21
14.75
  0
LINE
  8
DIMENSIONS
 10
24.849008
 11
24.182208
 20
14.75
 21
14.75
  0
TEXT
  8
TEXT
 10
35.540825
 20
8.281268
 30
0.0
 40
4.0
 50
0.0
  1
.25 OVERHANG
  0
TEXT
  8
TEXT
 10
35.540825
 20
2.281268
 30
0.0
 40
4.0
 50
0.0
  1

  0
TEXT
  8
TEXT
 10
-1.294901
 20
21.029879
 30
0.0
 40
4.0
 50
0.0
  1
.125 REVEAL
  0
TEXT
  8
TEXT
 10
-2.062333
 20
29.707998
 30
0.0
 40
4.0
 50
0.0
  1
AS-615
  0
TEXT
  8
TEXT
 10
-2.062333
 20
23.707998
 30
0.0
 40
4.0
 50
0.0
  1

  0
TEXT
  8
DIMENSIONS
 10
-9.88064
 20
7.375
 30
0.0
 40
2.0
 50
0.0
  1
18.625
  0
TEXT
  8
DIMENSIONS
 10
13.450086
 20
-3.773364
 30
0.0
 40
2.0
 50
0.0
  1
32
  0
TEXT
  8
DIMENSIONS
 10
1.692072
 20
7.375
 30
0.0
 40
2.0
 50
0.0
  1
16
  0
TEXT
  8
DIMENSIONS
 10
10.322785
 20
12.742679
 30
0.0
 40
2.0
 50
0.0
  1
29.375
  0
TEXT
  8
DIMENSIONS
 10
10.598323
 20
18.302153
 30
0.0
 40
2.0
 50
0.0
  1
30.125
  0
TEXT
  8
DIMENSIONS
 10
21.018387
 20
7.375
 30
0.0
 40
2.0
 50
0.0
  1
16.75
  0
ENDSEC
  0
EOF
