  0
SECTION
  2
ENTITIES
  0
LINE
  8
APS_GEOMETRY
 10
28.194627
 11
28.150268
 20
0.453351
 21
15.743441
  0
ARC
  8
APS_GEOMETRY
 10
27.69827
 20
15.742129
 40
0.452
 50
0.166224
 51
89.48736
  0
LINE
  8
APS_GEOMETRY
 10
27.702314
 11
15.526501
 20
16.194111
 21
16.204887
  0
ARC
  8
APS_GEOMETRY
 10
15.518593
 20
17.579865
 40
1.375
 50
177.865092
 51
270.329512
  0
ARC
  8
APS_GEOMETRY
 10
13.692861
 20
17.647925
 40
0.452
 50
357.865092
 51
90.675745
  0
LINE
  8
APS_GEOMETRY
 10
13.68753
 11
-0.937338
 20
18.099894
 21
17.930425
  0
ARC
  8
APS_GEOMETRY
 10
-0.92699
 20
17.478544
 40
0.452
 50
91.311855
 51
180.961228
  0
LINE
  8
APS_GEOMETRY
 10
-1.378927
 11
-1.056292
 20
17.470961
 21
0.068753
  0
ARC
  8
APS_GEOMETRY
 10
-0.60437
 20
0.077131
 40
0.452
 50
181.062134
 51
270.757731
  0
LINE
  8
APS_GEOMETRY
 10
-0.598392
 11
27.748607
 20
-0.374829
 21
0.000079
  0
ARC
  8
APS_GEOMETRY
 10
27.742629
 20
0.45204
 40
0.452
 50
270.757731
 51
0.166224
  0
LINE
  8
APS_GEOMETRY
 10
29.146068
 11
15.59644
 20
17.192834
 21
17.204826
  0
ARC
  8
APS_GEOMETRY
 10
15.59684
 20
17.656826
 40
0.452
 50
180.267842
 51
269.94929
  0
ARC
  8
APS_GEOMETRY
 10
13.692861
 20
17.647925
 40
1.452
 50
0.267842
 51
90.670507
  0
LINE
  8
APS_GEOMETRY
 10
13.675869
 11
-2.405842
 20
19.099826
 21
18.913476
  0
LINE
  8
APS_GEOMETRY
 10
-2.405842
 11
-2.029348
 20
18.913476
 21
-1.393842
  0
LINE
  8
APS_GEOMETRY
 10
-2.029348
 11
29.198792
 20
-1.393842
 21
-0.980829
  0
LINE
  8
APS_GEOMETRY
 10
29.198792
 11
29.146068
 20
-0.980829
 21
17.192834
  0
LINE
  8
DIMENSIONS
 10
-2.358586
 11
-2.358586
 20
-0.374829
 21
7.253689
  0
LINE
  8
DIMENSIONS
 10
-2.358586
 11
-2.358586
 20
10.312605
 21
17.930425
  0
LINE
  8
DIMENSIONS
 10
-2.025186
 11
-2.358586
 20
1.625171
 21
-0.374829
  0
LINE
  8
DIMENSIONS
 10
-2.358586
 11
-2.691986
 20
-0.374829
 21
1.625171
  0
LINE
  8
DIMENSIONS
 10
-2.691986
 11
-2.025186
 20
1.625171
 21
1.625171
  0
LINE
  8
DIMENSIONS
 10
-2.691986
 11
-2.358586
 20
15.930425
 21
17.930425
  0
LINE
  8
DIMENSIONS
 10
-2.358586
 11
-2.025186
 20
17.930425
 21
15.930425
  0
LINE
  8
DIMENSIONS
 10
-2.025186
 11
-2.691986
 20
15.930425
 21
15.930425
  0
LINE
  8
DIMENSIONS
 10
14.191194
 11
14.191194
 20
18.099894
 21
10.491067
  0
LINE
  8
DIMENSIONS
 10
14.191194
 11
14.191194
 20
7.445073
 21
-0.187375
  0
LINE
  8
DIMENSIONS
 10
13.857794
 11
14.191194
 20
16.099894
 21
18.099894
  0
LINE
  8
DIMENSIONS
 10
14.191194
 11
14.524594
 20
18.099894
 21
16.099894
  0
LINE
  8
DIMENSIONS
 10
14.524594
 11
13.857794
 20
16.099894
 21
16.099894
  0
LINE
  8
DIMENSIONS
 10
14.524594
 11
14.191194
 20
1.812625
 21
-0.187375
  0
LINE
  8
DIMENSIONS
 10
14.191194
 11
13.857794
 20
-0.187375
 21
1.812625
  0
LINE
  8
DIMENSIONS
 10
13.857794
 11
14.524594
 20
1.812625
 21
1.812625
  0
LINE
  8
DIMENSIONS
 10
26.702314
 11
23.688484
 20
16.194111
 21
16.194111
  0
LINE
  8
DIMENSIONS
 10
26.748607
 11
23.688484
 20
0.000079
 21
0.000079
  0
LINE
  8
DIMENSIONS
 10
24.688484
 11
24.688484
 20
16.194111
 21
9.632119
  0
LINE
  8
DIMENSIONS
 10
24.688484
 11
24.688484
 20
6.570535
 21
0.000079
  0
LINE
  8
DIMENSIONS
 10
24.355084
 11
24.688484
 20
14.194111
 21
16.194111
  0
LINE
  8
DIMENSIONS
 10
24.688484
 11
25.021884
 20
16.194111
 21
14.194111
  0
LINE
  8
DIMENSIONS
 10
25.021884
 11
24.355084
 20
14.194111
 21
14.194111
  0
LINE
  8
DIMENSIONS
 10
25.021884
 11
24.688484
 20
2.000079
 21
0.000079
  0
LINE
  8
DIMENSIONS
 10
24.688484
 11
24.355084
 20
0.000079
 21
2.000079
  0
LINE
  8
DIMENSIONS
 10
24.355084
 11
25.021884
 20
2.000079
 21
2.000079
  0
LINE
  8
DIMENSIONS
 10
-1.217609
 11
-1.217609
 20
7.769857
 21
-4.198594
  0
LINE
  8
DIMENSIONS
 10
28.172448
 11
28.172448
 20
7.098396
 21
-4.198594
  0
LINE
  8
DIMENSIONS
 10
-1.217609
 11
8.960942
 20
-3.198594
 21
-3.198594
  0
LINE
  8
DIMENSIONS
 10
17.993896
 11
28.172448
 20
-3.198594
 21
-3.198594
  0
LINE
  8
DIMENSIONS
 10
0.782391
 11
-1.217609
 20
-3.531994
 21
-3.198594
  0
LINE
  8
DIMENSIONS
 10
-1.217609
 11
0.782391
 20
-3.198594
 21
-2.865194
  0
LINE
  8
DIMENSIONS
 10
0.782391
 11
0.782391
 20
-2.865194
 21
-3.531994
  0
LINE
  8
DIMENSIONS
 10
26.172448
 11
28.172448
 20
-2.865194
 21
-3.198594
  0
LINE
  8
DIMENSIONS
 10
28.172448
 11
26.172448
 20
-3.198594
 21
-3.531994
  0
LINE
  8
DIMENSIONS
 10
26.172448
 11
26.172448
 20
-3.531994
 21
-2.865194
  0
LINE
  8
DIMENSIONS
 10
27.69827
 11
27.69827
 20
15.408729
 21
16.075529
  0
LINE
  8
DIMENSIONS
 10
27.36487
 11
28.03167
 20
15.742129
 21
15.742129
  0
LINE
  8
DIMENSIONS
 10
27.69827
 11
31.772416
 20
15.742129
 21
18.588844
  0
LINE
  8
DIMENSIONS
 10
33.953683
 11
33.953683
 20
20.112953
 21
20.112953
  0
LINE
  8
DIMENSIONS
 10
29.899187
 11
28.068785
 20
16.873246
 21
16.001018
  0
LINE
  8
DIMENSIONS
 10
28.068785
 11
29.51727
 20
16.001018
 21
17.419836
  0
LINE
  8
DIMENSIONS
 10
29.51727
 11
29.899187
 20
17.419836
 21
16.873246
  0
LINE
  8
DIMENSIONS
 10
27.742629
 11
27.742629
 20
0.11864
 21
0.78544
  0
LINE
  8
DIMENSIONS
 10
27.409229
 11
28.076029
 20
0.45204
 21
0.45204
  0
LINE
  8
DIMENSIONS
 10
27.742629
 11
28.123778
 20
0.45204
 21
-0.266919
  0
LINE
  8
DIMENSIONS
 10
28.123778
 11
30.909612
 20
-0.266919
 21
-0.266919
  0
LINE
  8
DIMENSIONS
 10
28.596557
 11
27.954342
 20
-1.870517
 21
0.052688
  0
LINE
  8
DIMENSIONS
 10
27.954342
 11
29.185689
 20
0.052688
 21
-1.558194
  0
LINE
  8
DIMENSIONS
 10
29.185689
 11
28.596557
 20
-1.558194
 21
-1.870517
  0
TEXT
  8
DIMENSIONS
 10
-7.089259
 20
7.777798
 30
0.0
 40
2.0
 50
0.0
  1
18.305
  0
TEXT
  8
DIMENSIONS
 10
9.626637
 20
7.956259
 30
0.0
 40
2.0
 50
0.0
  1
18.287
  0
TEXT
  8
DIMENSIONS
 10
20.319817
 20
7.097095
 30
0.0
 40
2.0
 50
0.0
  1
16.194
  0
TEXT
  8
DIMENSIONS
 10
9.465202
 20
-4.198594
 30
0.0
 40
2.0
 50
0.0
  1
29.39
  0
TEXT
  8
DIMENSIONS
 10
25.877257
 20
19.112953
 30
0.0
 40
2.0
 50
0.0
  1
R0.452
  0
TEXT
  8
DIMENSIONS
 10
31.409612
 20
-1.266919
 30
0.0
 40
2.0
 50
0.0
  1
R0.452
  0
TEXT
  8
TEXT
 10
0.804821
 20
27.168173
 30
0.0
 40
3.0
 50
0.0
  1
AS-616
  0
TEXT
  8
TEXT
 10
-3.10705
 20
34.304408
 30
0.0
 40
3.0
 50
0.0
  1
7-6-18
  0
TEXT
  8
TEXT
 10
16.707304
 20
35.520887
 30
0.0
 40
3.0
 50
0.0
  1

  0
ENDSEC
  0
EOF
